  0
SECTION
  2
HEADER
  9
$ACADVER
  1
AC1015
  9
$ACADMAINTVER
 70
     6
  9
$DWGCODEPAGE
  3
ANSI_1254
  9
$INSBASE
 10
0.0
 20
0.0
 30
0.0
  9
$EXTMIN
 10
0.0
 20
0.0
 30
0.0
  9
$EXTMAX
 10
279.4
 20
215.9
 30
0.0
  9
$LIMMIN
 10
0.0
 20
0.0
  9
$LIMMAX
 10
279.4
 20
215.9
  9
$ORTHOMODE
 70
     0
  9
$REGENMODE
 70
     1
  9
$FILLMODE
 70
     1
  9
$QTEXTMODE
 70
     0
  9
$MIRRTEXT
 70
     1
  9
$LTSCALE
 40
1.0
  9
$ATTMODE
 70
     1
  9
$TEXTSIZE
 40
3.5
  9
$TRACEWID
 40
1.0
  9
$TEXTSTYLE
  7
Standard
  9
$CLAYER
  8
0
  9
$CELTYPE
  6
ByLayer
  9
$CECOLOR
 62
   256
  9
$CELTSCALE
 40
1.0
  9
$DISPSILH
 70
     0
  9
$DIMSCALE
 40
1.0
  9
$DIMASZ
 40
3.5
  9
$DIMEXO
 40
1.0
  9
$DIMDLI
 40
3.75
  9
$DIMRND
 40
0.0
  9
$DIMDLE
 40
0.0
  9
$DIMEXE
 40
1.0
  9
$DIMTP
 40
0.0
  9
$DIMTM
 40
0.0
  9
$DIMTXT
 40
3.5
  9
$DIMCEN
 40
2.5
  9
$DIMTSZ
 40
0.0
  9
$DIMTOL
 70
     0
  9
$DIMLIM
 70
     0
  9
$DIMTIH
 70
     1
  9
$DIMTOH
 70
     1
  9
$DIMSE1
 70
     0
  9
$DIMSE2
 70
     0
  9
$DIMTAD
 70
     1
  9
$DIMZIN
 70
     0
  9
$DIMBLK
  1

  9
$DIMASO
 70
     1
  9
$DIMSHO
 70
     1
  9
$DIMPOST
  1

  9
$DIMAPOST
  1

  9
$DIMALT
 70
     0
  9
$DIMALTD
 70
     3
  9
$DIMALTF
 40
0.0393700787
  9
$DIMLFAC
 40
1.0
  9
$DIMTOFL
 70
     1
  9
$DIMTVP
 40
0.0
  9
$DIMTIX
 70
     0
  9
$DIMSOXD
 70
     0
  9
$DIMSAH
 70
     0
  9
$DIMBLK1
  1

  9
$DIMBLK2
  1

  9
$DIMSTYLE
  2
ISO-25
  9
$DIMCLRD
 70
     0
  9
$DIMCLRE
 70
     0
  9
$DIMCLRT
 70
     0
  9
$DIMTFAC
 40
1.0
  9
$DIMGAP
 40
1.524
  9
$DIMJUST
 70
     0
  9
$DIMSD1
 70
     0
  9
$DIMSD2
 70
     0
  9
$DIMTOLJ
 70
     0
  9
$DIMTZIN
 70
     0
  9
$DIMALTZ
 70
     0
  9
$DIMALTTZ
 70
     0
  9
$DIMUPT
 70
     0
  9
$DIMDEC
 70
     2
  9
$DIMTDEC
 70
     2
  9
$DIMALTU
 70
     2
  9
$DIMALTTD
 70
     3
  9
$DIMTXSTY
  7
Standard
  9
$DIMAUNIT
 70
     0
  9
$DIMADEC
 70
     2
  9
$DIMALTRND
 40
0.0
  9
$DIMAZIN
 70
     0
  9
$DIMDSEP
 70
    44
  9
$DIMATFIT
 70
     3
  9
$DIMFRAC
 70
     0
  9
$DIMLDRBLK
  1

  9
$DIMLUNIT
 70
     2
  9
$DIMLWD
 70
    -2
  9
$DIMLWE
 70
    -2
  9
$DIMTMOVE
 70
     0
  9
$LUNITS
 70
     2
  9
$LUPREC
 70
     2
  9
$SKETCHINC
 40
1.0
  9
$FILLETRAD
 40
10.0
  9
$AUNITS
 70
     0
  9
$AUPREC
 70
     2
  9
$MENU
  1
.
  9
$ELEVATION
 40
0.0
  9
$PELEVATION
 40
0.0
  9
$THICKNESS
 40
0.0
  9
$LIMCHECK
 70
     0
  9
$CHAMFERA
 40
0.0
  9
$CHAMFERB
 40
0.0
  9
$CHAMFERC
 40
0.0
  9
$CHAMFERD
 40
0.0
  9
$SKPOLY
 70
     0
  9
$TDCREATE
 40
2459935.710379097
  9
$TDUCREATE
 40
2459935.585379097
  9
$TDUPDATE
 40
2459935.710379178
  9
$TDUUPDATE
 40
2459935.585379178
  9
$TDINDWG
 40
0.0000000116
  9
$TDUSRTIMER
 40
0.0000000116
  9
$USRTIMER
 70
     1
  9
$ANGBASE
 50
0.0
  9
$ANGDIR
 70
     0
  9
$PDMODE
 70
     0
  9
$PDSIZE
 40
-1.0
  9
$PLINEWID
 40
0.0
  9
$SPLFRAME
 70
     0
  9
$SPLINETYPE
 70
     6
  9
$SPLINESEGS
 70
     8
  9
$HANDSEED
  5
10F
  9
$SURFTAB1
 70
     6
  9
$SURFTAB2
 70
     6
  9
$SURFTYPE
 70
     6
  9
$SURFU
 70
     6
  9
$SURFV
 70
     6
  9
$UCSBASE
  2

  9
$UCSNAME
  2

  9
$UCSORG
 10
0.0
 20
0.0
 30
0.0
  9
$UCSXDIR
 10
1.0
 20
0.0
 30
0.0
  9
$UCSYDIR
 10
0.0
 20
1.0
 30
0.0
  9
$UCSORTHOREF
  2

  9
$UCSORTHOVIEW
 70
     0
  9
$UCSORGTOP
 10
0.0
 20
0.0
 30
0.0
  9
$UCSORGBOTTOM
 10
0.0
 20
0.0
 30
0.0
  9
$UCSORGLEFT
 10
0.0
 20
0.0
 30
0.0
  9
$UCSORGRIGHT
 10
0.0
 20
0.0
 30
0.0
  9
$UCSORGFRONT
 10
0.0
 20
0.0
 30
0.0
  9
$UCSORGBACK
 10
0.0
 20
0.0
 30
0.0
  9
$PUCSBASE
  2

  9
$PUCSNAME
  2

  9
$PUCSORG
 10
0.0
 20
0.0
 30
0.0
  9
$PUCSXDIR
 10
1.0
 20
0.0
 30
0.0
  9
$PUCSYDIR
 10
0.0
 20
1.0
 30
0.0
  9
$PUCSORTHOREF
  2

  9
$PUCSORTHOVIEW
 70
     0
  9
$PUCSORGTOP
 10
0.0
 20
0.0
 30
0.0
  9
$PUCSORGBOTTOM
 10
0.0
 20
0.0
 30
0.0
  9
$PUCSORGLEFT
 10
0.0
 20
0.0
 30
0.0
  9
$PUCSORGRIGHT
 10
0.0
 20
0.0
 30
0.0
  9
$PUCSORGFRONT
 10
0.0
 20
0.0
 30
0.0
  9
$PUCSORGBACK
 10
0.0
 20
0.0
 30
0.0
  9
$USERI1
 70
     0
  9
$USERI2
 70
     0
  9
$USERI3
 70
     0
  9
$USERI4
 70
     0
  9
$USERI5
 70
     0
  9
$USERR1
 40
0.0
  9
$USERR2
 40
0.0
  9
$USERR3
 40
0.0
  9
$USERR4
 40
0.0
  9
$USERR5
 40
0.0
  9
$WORLDVIEW
 70
     1
  9
$SHADEDGE
 70
     3
  9
$SHADEDIF
 70
    70
  9
$TILEMODE
 70
     1
  9
$MAXACTVP
 70
    64
  9
$PINSBASE
 10
0.0
 20
0.0
 30
0.0
  9
$PLIMCHECK
 70
     0
  9
$PEXTMIN
 10
1.0000000000E+20
 20
1.0000000000E+20
 30
1.0000000000E+20
  9
$PEXTMAX
 10
-1.0000000000E+20
 20
-1.0000000000E+20
 30
-1.0000000000E+20
  9
$PLIMMIN
 10
0.0
 20
0.0
  9
$PLIMMAX
 10
420.0
 20
297.0
  9
$UNITMODE
 70
     0
  9
$VISRETAIN
 70
     1
  9
$PLINEGEN
 70
     0
  9
$PSLTSCALE
 70
     1
  9
$TREEDEPTH
 70
  3020
  9
$CMLSTYLE
  2
Standard
  9
$CMLJUST
 70
     0
  9
$CMLSCALE
 40
20.0
  9
$PROXYGRAPHICS
 70
     1
  9
$MEASUREMENT
 70
     1
  9
$CELWEIGHT
370
    -1
  9
$ENDCAPS
280
     0
  9
$JOINSTYLE
280
     0
  9
$LWDISPLAY
290
     1
  9
$INSUNITS
 70
     4
  9
$HYPERLINKBASE
  1

  9
$STYLESHEET
  1

  9
$XEDIT
290
     1
  9
$CEPSNTYPE
380
     0
  9
$PSTYLEMODE
290
     1
  9
$FINGERPRINTGUID
  2
{7f955570-e514-4606-9ba9-48b6b752d544}
  9
$VERSIONGUID
  2
{FAEB1C32-E019-11D5-929B-00C0DF256EC4}
  9
$EXTNAMES
290
     1
  9
$PSVPSCALE
 40
0.0
  9
$OLESTARTUP
290
     0
  0
ENDSEC
  0
SECTION
  2
CLASSES
  0
CLASS
  1
ACDBDICTIONARYWDFLT
  2
AcDbDictionaryWithDefault
  3
ObjectDBX Classes
 90
        0
280
     0
281
     0
  0
CLASS
  1
VISUALSTYLE
  2
AcDbVisualStyle
  3
ObjectDBX Classes
 90
     4095
280
     0
281
     0
  0
CLASS
  1
MATERIAL
  2
AcDbMaterial
  3
ObjectDBX Classes
 90
     1153
280
     0
281
     0
  0
CLASS
  1
SCALE
  2
AcDbScale
  3
ObjectDBX Classes
 90
     1153
280
     0
281
     0
  0
CLASS
  1
TABLESTYLE
  2
AcDbTableStyle
  3
ObjectDBX Classes
 90
     4095
280
     0
281
     0
  0
CLASS
  1
MLEADERSTYLE
  2
AcDbMLeaderStyle
  3
ACDB_MLEADERSTYLE_CLASS
 90
     4095
280
     0
281
     0
  0
CLASS
  1
SUN
  2
AcDbSun
  3
SCENEOE
 90
     1153
280
     0
281
     0
  0
CLASS
  1
ACDBPLACEHOLDER
  2
AcDbPlaceHolder
  3
ObjectDBX Classes
 90
        0
280
     0
281
     0
  0
CLASS
  1
LAYOUT
  2
AcDbLayout
  3
ObjectDBX Classes
 90
        0
280
     0
281
     0
  0
ENDSEC
  0
SECTION
  2
TABLES
  0
TABLE
  2
VPORT
  5
8
330
0
100
AcDbSymbolTable
 70
     1
  0
VPORT
  5
29
330
8
100
AcDbSymbolTableRecord
100
AcDbViewportTableRecord
  2
*Active
 70
     0
 10
0.0
 20
0.0
 11
1.0
 21
1.0
 12
139.7
 22
107.95
 13
0.0
 23
0.0
 14
10.0
 24
10.0
 15
10.0
 25
10.0
 16
0.0
 26
0.0
 36
1.0
 17
0.0
 27
0.0
 37
0.0
 40
215.9
 41
1.2941176471
 42
50.0
 43
0.0
 44
0.0
 50
0.0
 51
0.0
 71
     0
 72
  2000
 73
     1
 74
     3
 75
     0
 76
     0
 77
     0
 78
     0
281
     0
 65
     1
110
0.0
120
0.0
130
0.0
111
1.0
121
0.0
131
0.0
112
0.0
122
1.0
132
0.0
 79
     0
146
0.0
  0
ENDTAB
  0
TABLE
  2
LTYPE
  5
5
330
0
100
AcDbSymbolTable
 70
     6
  0
LTYPE
  5
14
330
5
100
AcDbSymbolTableRecord
100
AcDbLinetypeTableRecord
  2
ByBlock
 70
     0
  3

 72
    65
 73
     0
 40
0.0
  0
LTYPE
  5
15
330
5
100
AcDbSymbolTableRecord
100
AcDbLinetypeTableRecord
  2
ByLayer
 70
     0
  3

 72
    65
 73
     0
 40
0.0
  0
LTYPE
  5
16
330
5
100
AcDbSymbolTableRecord
100
AcDbLinetypeTableRecord
  2
Continuous
 70
     0
  3
Solid line
 72
    65
 73
     0
 40
0.0
  0
LTYPE
  5
6E
330
5
100
AcDbSymbolTableRecord
100
AcDbLinetypeTableRecord
  2
HIDDEN
 70
     0
  3
Hidden __ __ __ __ __ __ __ __ __ __ __ __ __ __
 72
    65
 73
     2
 40
1.905
 49
1.27
 74
     0
 49
-0.635
 74
     0
  0
LTYPE
  5
6F
330
5
100
AcDbSymbolTableRecord
100
AcDbLinetypeTableRecord
  2
PHANTOM
 70
     0
  3
Phantom ______  __  __  ______  __  __  ______
 72
    65
 73
     6
 40
12.7
 49
6.35
 74
     0
 49
-1.27
 74
     0
 49
1.27
 74
     0
 49
-1.27
 74
     0
 49
1.27
 74
     0
 49
-1.27
 74
     0
  0
LTYPE
  5
70
330
5
100
AcDbSymbolTableRecord
100
AcDbLinetypeTableRecord
  2
CENTER
 70
     0
  3
Center ____ _ ____ _ ____ _ ____ _ ____ _ ____
 72
    65
 73
     4
 40
10.16
 49
6.35
 74
     0
 49
-1.27
 74
     0
 49
1.27
 74
     0
 49
-1.27
 74
     0
  0
LTYPE
  5
71
330
5
100
AcDbSymbolTableRecord
100
AcDbLinetypeTableRecord
  2
CENTERX2
 70
     0
  3
Center (2x) ________  __  ________  __  _____
 72
    65
 73
     4
 40
20.32
 49
12.7
 74
     0
 49
-2.54
 74
     0
 49
2.54
 74
     0
 49
-2.54
 74
     0
  0
LTYPE
  5
72
330
5
100
AcDbSymbolTableRecord
100
AcDbLinetypeTableRecord
  2
DOT2
 70
     0
  3
Dot (.5x) ........................................
 72
    65
 73
     2
 40
0.635
 49
0.0
 74
     0
 49
-0.635
 74
     0
  0
ENDTAB
  0
TABLE
  2
LAYER
  5
2
330
0
100
AcDbSymbolTable
 70
    17
  0
LAYER
  5
10
330
2
100
AcDbSymbolTableRecord
100
AcDbLayerTableRecord
  2
0
 70
     0
 62
     7
  6
Continuous
370
    -3
390
F
  0
LAYER
  5
73
330
2
100
AcDbSymbolTableRecord
100
AcDbLayerTableRecord
  2
FORMAT
 70
     0
 62
     7
  6
Continuous
370
    -3
390
F
  0
LAYER
  5
74
330
2
100
AcDbSymbolTableRecord
100
AcDbLayerTableRecord
  2
YARDIMCI_GEOMETRI
 70
     0
 62
    -6
  6
Continuous
290
     0
370
    -3
390
F
  0
LAYER
  5
75
330
2
100
AcDbSymbolTableRecord
100
AcDbLayerTableRecord
  2
SAYFA_CERCEVESI
 70
     0
 62
     7
  6
Continuous
370
    25
390
F
  0
LAYER
  5
76
330
2
100
AcDbSymbolTableRecord
100
AcDbLayerTableRecord
  2
ANTET
 70
     0
 62
     7
  6
Continuous
370
    -3
390
F
  0
LAYER
  5
77
330
2
100
AcDbSymbolTableRecord
100
AcDbLayerTableRecord
  2
OLCU
 70
     0
 62
   150
  6
Continuous
370
    -3
390
F
  0
LAYER
  5
78
330
2
100
AcDbSymbolTableRecord
100
AcDbLayerTableRecord
  2
METIN
 70
     0
 62
    96
  6
Continuous
370
    -3
390
F
  0
LAYER
  5
79
330
2
100
AcDbSymbolTableRecord
100
AcDbLayerTableRecord
  2
BALON
 70
     0
 62
     5
  6
Continuous
370
    -3
390
F
  0
LAYER
  5
7A
330
2
100
AcDbSymbolTableRecord
100
AcDbLayerTableRecord
  2
VURGU
 70
     0
 62
     7
  6
Continuous
370
    -3
390
F
  0
LAYER
  5
7B
330
2
100
AcDbSymbolTableRecord
100
AcDbLayerTableRecord
  2
SILIK
 70
     0
 62
     7
  6
Continuous
370
    -3
390
F
  0
LAYER
  5
7C
330
2
100
AcDbSymbolTableRecord
100
AcDbLayerTableRecord
  2
MODEL
 70
     0
 62
     7
  6
Continuous
370
    -3
390
F
  0
LAYER
  5
7D
330
2
100
AcDbSymbolTableRecord
100
AcDbLayerTableRecord
  2
DETAYLANDıRMA
 70
     0
 62
   190
  6
Continuous
370
    -3
390
F
  0
LAYER
  5
7E
330
2
100
AcDbSymbolTableRecord
100
AcDbLayerTableRecord
  2
TOLERANS
 70
     0
 62
   230
  6
Continuous
370
    -3
390
F
  0
LAYER
  5
7F
330
2
100
AcDbSymbolTableRecord
100
AcDbLayerTableRecord
  2
MERKEZ_CIZGILERI
 70
     0
 62
    30
  6
Continuous
370
    -3
390
F
  0
LAYER
  5
80
330
2
100
AcDbSymbolTableRecord
100
AcDbLayerTableRecord
  2
KESIT-DETAY_CIZGILERI
 70
     0
 62
     7
  6
Continuous
370
    -3
390
F
  0
LAYER
  5
81
330
2
100
AcDbSymbolTableRecord
100
AcDbLayerTableRecord
  2
\U+041E\U+0421\U+0415\U+0412\U+042B\U+0415
 70
     0
 62
     7
  6
Continuous
370
    -3
390
F
  0
LAYER
  5
82
330
2
100
AcDbSymbolTableRecord
100
AcDbLayerTableRecord
  2
\U+0412\U+041E\U+0414\U+042F\U+041D\U+042B\U+0415_\U+0417\U+041D\U+0410\U+041A\U+0418
 70
     0
 62
    11
  6
Continuous
370
    -3
390
F
  0
ENDTAB
  0
TABLE
  2
STYLE
  5
3
330
0
100
AcDbSymbolTable
 70
     1
  0
STYLE
  5
11
330
3
100
AcDbSymbolTableRecord
100
AcDbTextStyleTableRecord
  2
Standard
 70
     0
 40
0.0
 41
1.0
 50
0.0
 71
     0
 42
3.5
  3
txt
  4

  0
ENDTAB
  0
TABLE
  2
VIEW
  5
6
330
0
100
AcDbSymbolTable
 70
     0
  0
ENDTAB
  0
TABLE
  2
UCS
  5
7
330
0
100
AcDbSymbolTable
 70
     0
  0
ENDTAB
  0
TABLE
  2
APPID
  5
9
330
0
100
AcDbSymbolTable
 70
     1
  0
APPID
  5
12
330
9
100
AcDbSymbolTableRecord
100
AcDbRegAppTableRecord
  2
ACAD
 70
     0
  0
ENDTAB
  0
TABLE
  2
DIMSTYLE
  5
A
330
0
100
AcDbSymbolTable
 70
     1
100
AcDbDimStyleTable
  0
DIMSTYLE
105
27
330
A
100
AcDbSymbolTableRecord
100
AcDbDimStyleTableRecord
  2
ISO-25
 70
     0
 41
2.5
 42
0.625
 43
3.75
 44
1.25
 73
     0
 74
     0
 77
     1
 78
     8
140
2.5
141
2.5
143
0.0393700787
147
0.625
171
     3
172
     1
178
     0
271
     2
272
     2
274
     3
278
    44
283
     0
284
     8
340
11
  0
ENDTAB
  0
TABLE
  2
BLOCK_RECORD
  5
1
330
0
100
AcDbSymbolTable
 70
     4
  0
BLOCK_RECORD
  5
1F
330
1
100
AcDbSymbolTableRecord
100
AcDbBlockTableRecord
  2
*Model_Space
340
22
  0
BLOCK_RECORD
  5
1B
330
1
100
AcDbSymbolTableRecord
100
AcDbBlockTableRecord
  2
*Paper_Space
340
1E
  0
BLOCK_RECORD
  5
23
330
1
100
AcDbSymbolTableRecord
100
AcDbBlockTableRecord
  2
*Paper_Space0
340
26
  0
BLOCK_RECORD
  5
8C
330
1
100
AcDbSymbolTableRecord
100
AcDbBlockTableRecord
  2
SW_CENTERMARKSYMBOL_0
340
0
102
{BLKREFS
331
97
102
}
  0
BLOCK_RECORD
  5
DE
330
1
100
AcDbSymbolTableRecord
100
AcDbBlockTableRecord
  2
SW_CENTERMARKSYMBOL_1
340
0
102
{BLKREFS
331
E9
102
}
  0
BLOCK_RECORD
  5
EA
330
1
100
AcDbSymbolTableRecord
100
AcDbBlockTableRecord
  2
SW_CENTERMARKSYMBOL_2
340
0
102
{BLKREFS
331
F5
102
}
  0
ENDTAB
  0
ENDSEC
  0
SECTION
  2
BLOCKS
  0
BLOCK
  5
20
330
1F
100
AcDbEntity
  8
0
100
AcDbBlockBegin
  2
*Model_Space
 70
     0
 10
0.0
 20
0.0
 30
0.0
  3
*Model_Space
  1

  0
ENDBLK
  5
21
330
1F
100
AcDbEntity
  8
0
100
AcDbBlockEnd
  0
BLOCK
  5
1C
330
1B
100
AcDbEntity
 67
     1
  8
0
100
AcDbBlockBegin
  2
*Paper_Space
 70
     0
 10
0.0
 20
0.0
 30
0.0
  3
*Paper_Space
  1

  0
ENDBLK
  5
1D
330
1B
100
AcDbEntity
 67
     1
  8
0
100
AcDbBlockEnd
  0
BLOCK
  5
24
330
23
100
AcDbEntity
  8
0
100
AcDbBlockBegin
  2
*Paper_Space0
 70
     0
 10
0.0
 20
0.0
 30
0.0
  3
*Paper_Space0
  1

  0
ENDBLK
  5
25
330
23
100
AcDbEntity
  8
0
100
AcDbBlockEnd
  0
BLOCK
  5
8D
330
8C
100
AcDbEntity
  8
0
100
AcDbBlockBegin
  2
SW_CENTERMARKSYMBOL_0
 70
     0
 10
0.0
 20
0.0
 30
0.0
  3
SW_CENTERMARKSYMBOL_0
  1

  0
LINE
  5
8F
330
8C
100
AcDbEntity
  8
FORMAT
 62
     0
100
AcDbLine
 10
0.0
 20
0.0
 30
0.0
 11
0.0
 21
2.5
 31
0.0
  0
LINE
  5
90
330
8C
100
AcDbEntity
  8
FORMAT
 62
     0
100
AcDbLine
 10
0.0
 20
0.0
 30
0.0
 11
-2.5
 21
0.0
 31
0.0
  0
LINE
  5
91
330
8C
100
AcDbEntity
  8
FORMAT
 62
     0
100
AcDbLine
 10
0.0
 20
0.0
 30
0.0
 11
0.0
 21
-2.5
 31
0.0
  0
LINE
  5
92
330
8C
100
AcDbEntity
  8
FORMAT
 62
     0
100
AcDbLine
 10
0.0
 20
0.0
 30
0.0
 11
2.5
 21
0.0
 31
0.0
  0
LINE
  5
93
330
8C
100
AcDbEntity
  8
FORMAT
 62
     0
100
AcDbLine
 10
0.0
 20
5.0
 30
0.0
 11
0.0
 21
128.25
 31
0.0
  0
LINE
  5
94
330
8C
100
AcDbEntity
  8
FORMAT
 62
     0
100
AcDbLine
 10
-5.0
 20
0.0
 30
0.0
 11
-128.25
 21
0.0
 31
0.0
  0
LINE
  5
95
330
8C
100
AcDbEntity
  8
FORMAT
 62
     0
100
AcDbLine
 10
0.0
 20
-5.0
 30
0.0
 11
0.0
 21
-128.25
 31
0.0
  0
LINE
  5
96
330
8C
100
AcDbEntity
  8
FORMAT
 62
     0
100
AcDbLine
 10
5.0
 20
0.0
 30
0.0
 11
128.25
 21
0.0
 31
0.0
  0
ENDBLK
  5
8E
330
8C
100
AcDbEntity
  8
0
100
AcDbBlockEnd
  0
BLOCK
  5
DF
330
DE
100
AcDbEntity
  8
0
100
AcDbBlockBegin
  2
SW_CENTERMARKSYMBOL_1
 70
     0
 10
0.0
 20
0.0
 30
0.0
  3
SW_CENTERMARKSYMBOL_1
  1

  0
LINE
  5
E1
330
DE
100
AcDbEntity
  8
FORMAT
 62
     0
100
AcDbLine
 10
0.0
 20
0.0
 30
0.0
 11
0.0
 21
2.5
 31
0.0
  0
LINE
  5
E2
330
DE
100
AcDbEntity
  8
FORMAT
 62
     0
100
AcDbLine
 10
0.0
 20
0.0
 30
0.0
 11
-2.5
 21
0.0
 31
0.0
  0
LINE
  5
E3
330
DE
100
AcDbEntity
  8
FORMAT
 62
     0
100
AcDbLine
 10
0.0
 20
0.0
 30
0.0
 11
0.0
 21
-2.5
 31
0.0
  0
LINE
  5
E4
330
DE
100
AcDbEntity
  8
FORMAT
 62
     0
100
AcDbLine
 10
0.0
 20
0.0
 30
0.0
 11
2.5
 21
0.0
 31
0.0
  0
LINE
  5
E5
330
DE
100
AcDbEntity
  8
FORMAT
 62
     0
100
AcDbLine
 10
0.0
 20
5.0
 30
0.0
 11
0.0
 21
9.5
 31
0.0
  0
LINE
  5
E6
330
DE
100
AcDbEntity
  8
FORMAT
 62
     0
100
AcDbLine
 10
-5.0
 20
0.0
 30
0.0
 11
-9.5
 21
0.0
 31
0.0
  0
LINE
  5
E7
330
DE
100
AcDbEntity
  8
FORMAT
 62
     0
100
AcDbLine
 10
0.0
 20
-5.0
 30
0.0
 11
0.0
 21
-9.5
 31
0.0
  0
LINE
  5
E8
330
DE
100
AcDbEntity
  8
FORMAT
 62
     0
100
AcDbLine
 10
5.0
 20
0.0
 30
0.0
 11
9.5
 21
0.0
 31
0.0
  0
ENDBLK
  5
E0
330
DE
100
AcDbEntity
  8
0
100
AcDbBlockEnd
  0
BLOCK
  5
EB
330
EA
100
AcDbEntity
  8
0
100
AcDbBlockBegin
  2
SW_CENTERMARKSYMBOL_2
 70
     0
 10
0.0
 20
0.0
 30
0.0
  3
SW_CENTERMARKSYMBOL_2
  1

  0
LINE
  5
ED
330
EA
100
AcDbEntity
  8
FORMAT
 62
     0
100
AcDbLine
 10
0.0
 20
0.0
 30
0.0
 11
0.0
 21
2.5
 31
0.0
  0
LINE
  5
EE
330
EA
100
AcDbEntity
  8
FORMAT
 62
     0
100
AcDbLine
 10
0.0
 20
0.0
 30
0.0
 11
-2.5
 21
0.0
 31
0.0
  0
LINE
  5
EF
330
EA
100
AcDbEntity
  8
FORMAT
 62
     0
100
AcDbLine
 10
0.0
 20
0.0
 30
0.0
 11
0.0
 21
-2.5
 31
0.0
  0
LINE
  5
F0
330
EA
100
AcDbEntity
  8
FORMAT
 62
     0
100
AcDbLine
 10
0.0
 20
0.0
 30
0.0
 11
2.5
 21
0.0
 31
0.0
  0
LINE
  5
F1
330
EA
100
AcDbEntity
  8
FORMAT
 62
     0
100
AcDbLine
 10
0.0
 20
5.0
 30
0.0
 11
0.0
 21
9.5
 31
0.0
  0
LINE
  5
F2
330
EA
100
AcDbEntity
  8
FORMAT
 62
     0
100
AcDbLine
 10
-5.0
 20
0.0
 30
0.0
 11
-9.5
 21
0.0
 31
0.0
  0
LINE
  5
F3
330
EA
100
AcDbEntity
  8
FORMAT
 62
     0
100
AcDbLine
 10
0.0
 20
-5.0
 30
0.0
 11
0.0
 21
-9.5
 31
0.0
  0
LINE
  5
F4
330
EA
100
AcDbEntity
  8
FORMAT
 62
     0
100
AcDbLine
 10
5.0
 20
0.0
 30
0.0
 11
9.5
 21
0.0
 31
0.0
  0
ENDBLK
  5
EC
330
EA
100
AcDbEntity
  8
0
100
AcDbBlockEnd
  0
ENDSEC
  0
SECTION
  2
ENTITIES
  0
LINE
  5
83
330
1F
100
AcDbEntity
  8
0
  6
Continuous
 62
     7
370
    25
100
AcDbLine
 10
149.9491444162
 20
242.0939407583
 30
0.0
 11
149.9491444162
 21
253.4809342331
 31
0.0
  0
LINE
  5
84
330
1F
100
AcDbEntity
  8
0
  6
Continuous
 62
     7
370
    25
100
AcDbLine
 10
135.9491444162
 20
253.4809342331
 30
0.0
 11
135.9491444162
 21
242.0947662894
 31
0.0
  0
CIRCLE
  5
85
330
1F
100
AcDbEntity
  8
0
  6
Continuous
 62
     7
370
    25
100
AcDbCircle
 10
142.9491444162
 20
91.7809342331
 30
0.0
 40
150.25
  0
ARC
  5
86
330
1F
100
AcDbEntity
  8
0
  6
Continuous
 62
     7
370
    25
100
AcDbCircle
 10
142.9491444162
 20
91.7809342331
 30
0.0
 40
151.2499999999993
100
AcDbArc
 50
92.6526530397
 51
180.0
  0
ARC
  5
87
330
1F
100
AcDbEntity
  8
0
  6
Continuous
 62
     7
370
    25
100
AcDbCircle
 10
142.9491444162
 20
91.7809342331
 30
0.0
 40
151.2499999999993
100
AcDbArc
 50
180.0
 51
87.3473469603
  0
SPLINE
  5
88
330
1F
100
AcDbEntity
  8
0
  6
Continuous
 62
     7
370
    25
100
AcDbSpline
210
0.0
220
0.0
230
1.0
 70
     8
 71
     3
 72
    14
 73
    10
 74
     0
 42
0.00000001
 43
0.00000001
 40
0.0
 40
0.0
 40
0.0
 40
0.0
 40
0.1560432695838284
 40
0.3120882242047343
 40
0.4680948004158504
 40
0.6241213445221254
 40
0.7801978809749307
 40
0.9362279193403343
 40
1.0
 40
1.0
 40
1.0
 40
1.0
 10
146.8498046349729
 20
242.0985483404565
 30
0.0
 10
146.1532463623234
 20
242.1071245822128
 30
0.0
 10
144.7601222952227
 20
242.124277158336
 30
0.0
 10
142.3476848160963
 20
242.1301272030795
 30
0.0
 10
140.0381870855014
 20
242.1133759130157
 30
0.0
 10
138.0354273966593
 20
242.0838459572907
 30
0.0
 10
136.6362947337339
 20
242.0645894742174
 30
0.0
 10
135.9406927740908
 20
242.0652828532613
 30
0.0
 10
136.0215345384342
 20
242.0881358552489
 30
0.0
 10
136.0449894875459
 20
242.0947662894437
 30
0.0
  0
SPLINE
  5
89
330
1F
100
AcDbEntity
  8
0
  6
Continuous
 62
     7
370
    25
100
AcDbSpline
210
0.0
220
0.0
230
1.0
 70
     8
 71
     3
 72
    11
 73
     7
 74
     0
 42
0.00000001
 43
0.00000001
 40
0.0
 40
0.0
 40
0.0
 40
0.0
 40
0.0942044538335348
 40
0.4382662413484648
 40
0.7821766324982429
 40
0.9999999999999999
 40
0.9999999999999999
 40
0.9999999999999999
 40
0.9999999999999999
 10
149.8702075181284
 20
242.0939407582817
 30
0.0
 10
149.8934483480341
 20
242.0891844631763
 30
0.0
 10
150.0015713799513
 20
242.0670568089756
 30
0.0
 10
149.3920058269837
 20
242.0638796280658
 30
0.0
 10
148.2679437957134
 20
242.0780102867141
 30
0.0
 10
147.246060197542
 20
242.0928096102492
 30
0.0
 10
146.8498046349729
 20
242.0985483404565
 30
0.0
  0
CIRCLE
  5
8A
330
1F
100
AcDbEntity
  8
0
  6
Continuous
 62
     7
370
    25
100
AcDbCircle
 10
142.9491444162
 20
91.7809342331
 30
0.0
 40
125.75
  0
LINE
  5
8B
330
1F
100
AcDbEntity
  8
0
  6
Continuous
 62
     7
370
    25
100
AcDbLine
 10
149.9491444162
 20
253.4809342331
 30
0.0
 11
135.9491444162
 21
253.4809342331
 31
0.0
  0
INSERT
  5
97
330
1F
100
AcDbEntity
  8
FORMAT
 62
     7
100
AcDbBlockReference
  2
SW_CENTERMARKSYMBOL_0
 10
142.9491444162
 20
91.7809342331
 30
0.0
  0
LINE
  5
98
330
1F
100
AcDbEntity
  8
0
  6
Continuous
 62
     7
370
    25
100
AcDbLine
 10
467.7193195856
 20
242.1276694675
 30
0.0
 11
462.6856184062
 21
242.0309342331
 31
0.0
  0
ARC
  5
99
330
1F
100
AcDbEntity
  8
0
  6
Continuous
 62
     7
370
    25
100
AcDbCircle
 10
564.1856184062
 20
-4908.594065767
 30
0.0
 40
5151.625000000028
100
AcDbArc
 50
90.0
 51
90.9183667094
  0
ARC
  5
9A
330
1F
100
AcDbEntity
  8
0
  6
Continuous
 62
     7
370
    25
100
AcDbCircle
 10
564.1856184062
 20
5092.1559342331
 30
0.0
 40
5151.625000000028
100
AcDbArc
 50
268.8710556494
 51
270.0
  0
LINE
  5
9B
330
1F
100
AcDbEntity
  8
0
  6
Continuous
 62
     7
370
    25
100
AcDbLine
 10
564.1856184062
 20
-59.4690657669
 30
0.0
 11
589.1856184062
 21
-59.4690657669
 31
0.0
  0
LINE
  5
9C
330
1F
100
AcDbEntity
  8
0
  6
Continuous
 62
     7
370
    25
100
AcDbLine
 10
589.1856184062
 20
243.0309342331
 30
0.0
 11
564.1856184062
 21
243.0309342331
 31
0.0
  0
ARC
  5
9D
330
1F
100
AcDbEntity
  8
0
  6
Continuous
 62
     7
370
    25
100
AcDbCircle
 10
589.1856184062
 20
-4908.594065767
 30
0.0
 40
5151.625000000027
100
AcDbArc
 50
89.0821281144
 51
90.0
  0
LINE
  5
9E
330
1F
100
AcDbEntity
  8
0
  6
Continuous
 62
     7
370
    25
100
AcDbLine
 10
690.6856184062
 20
242.0309342331
 30
0.0
 11
685.6112560132
 21
242.1284308385
 31
0.0
  0
ARC
  5
9F
330
1F
100
AcDbEntity
  8
0
  6
Continuous
 62
     7
370
    25
100
AcDbCircle
 10
589.1856184062
 20
5092.1559342331
 30
0.0
 40
5151.625000000028
100
AcDbArc
 50
270.0
 51
271.1289443506
  0
LINE
  5
A0
330
1F
100
AcDbEntity
  8
0
  6
Continuous
 62
     7
370
    25
100
AcDbLine
 10
481.6856184062
 20
242.3660410374
 30
0.0
 11
481.6856184062
 21
253.4809342331
 31
0.0
  0
LINE
  5
A1
330
1F
100
AcDbEntity
  8
0
  6
Continuous
 62
     7
370
    25
100
AcDbLine
 10
467.6856184062
 20
253.4809342331
 30
0.0
 11
467.6856184062
 21
242.1261561206
 31
0.0
  0
LINE
  5
A2
330
1F
100
AcDbEntity
  8
0
  6
Continuous
 62
     7
370
    25
100
AcDbLine
 10
685.6856184062
 20
242.1250275249
 30
0.0
 11
685.6856184062
 21
253.4809342331
 31
0.0
  0
LINE
  5
A3
330
1F
100
AcDbEntity
  8
0
  6
Continuous
 62
     7
370
    25
100
AcDbLine
 10
671.6856184062
 20
253.4809342331
 30
0.0
 11
671.6856184062
 21
242.3688086703
 31
0.0
  0
LINE
  5
A4
330
1F
100
AcDbEntity
  8
0
  6
Continuous
 62
     7
370
    25
100
AcDbLine
 10
462.6856184062
 20
91.7809342331
 30
0.0
 11
462.6856184062
 21
242.0309342331
 31
0.0
  0
LINE
  5
A5
330
1F
100
AcDbEntity
  8
0
  6
Continuous
 62
     7
370
    25
100
AcDbLine
 10
462.6856184062
 20
-58.4690657669
 30
0.0
 11
462.6856184062
 21
91.7809342331
 31
0.0
  0
SPLINE
  5
A6
330
1F
100
AcDbEntity
  8
0
  6
Continuous
 62
     7
370
    25
100
AcDbSpline
210
0.0
220
0.0
230
1.0
 70
     8
 71
     3
 72
    18
 73
    14
 74
     0
 42
0.00000001
 43
0.00000001
 40
0.0
 40
0.0
 40
0.0
 40
0.0
 40
0.0243087614636722
 40
0.1314435502036881
 40
0.2386217131549953
 40
0.3459818501234899
 40
0.4534380416724816
 40
0.5608105299547342
 40
0.6680603421841766
 40
0.7753018169649815
 40
0.8826138945237163
 40
0.9899492299035145
 40
1.0
 40
1.0
 40
1.0
 40
1.0
 10
481.6162158474816
 20
242.3660037614486
 30
0.0
 10
481.637571887208
 20
242.367324855044
 30
0.0
 10
481.753049332825
 20
242.3744683383759
 30
0.0
 10
481.1794643000317
 20
242.3384949983072
 30
0.0
 10
479.9189927495061
 20
242.2672166989788
 30
0.0
 10
478.0034265535169
 20
242.1788464186269
 30
0.0
 10
475.7298357211674
 20
242.1061151498135
 30
0.0
 10
473.3321741221785
 20
242.0669088570176
 30
0.0
 10
471.0955593369157
 20
242.0650110740423
 30
0.0
 10
469.2415875646903
 20
242.0891314120559
 30
0.0
 10
468.0820205246239
 20
242.1157378838008
 30
0.0
 10
467.5794580400001
 20
242.129887361964
 30
0.0
 10
467.7081619611754
 20
242.1264322421604
 30
0.0
 10
467.719181779211
 20
242.1261364097476
 30
0.0
  0
LINE
  5
A7
330
1F
100
AcDbEntity
  8
0
  6
Continuous
 62
     7
370
    25
100
AcDbLine
 10
690.6856184062
 20
91.7809342331
 30
0.0
 11
690.6856184062
 21
242.0309342331
 31
0.0
  0
LINE
  5
A8
330
1F
100
AcDbEntity
  8
0
  6
Continuous
 62
     7
370
    25
100
AcDbLine
 10
690.6856184062
 20
-58.4690657669
 30
0.0
 11
690.6856184062
 21
91.7809342331
 31
0.0
  0
SPLINE
  5
A9
330
1F
100
AcDbEntity
  8
0
  6
Continuous
 62
     7
370
    25
100
AcDbSpline
210
0.0
220
0.0
230
1.0
 70
     8
 71
     3
 72
    18
 73
    14
 74
     0
 42
0.00000001
 43
0.00000001
 40
0.0
 40
0.0
 40
0.0
 40
0.0
 40
0.0268008763377451
 40
0.1340953222829668
 40
0.2414035012662425
 40
0.34874606278167
 40
0.4560566449623383
 40
0.5632982804279538
 40
0.6705621505146093
 40
0.7779541670578167
 40
0.8854151018562502
 40
0.9927622412291048
 40
1.0
 40
1.0
 40
1.0
 40
1.0
 10
685.611305038093
 20
242.1250124166836
 30
0.0
 10
685.6337797994606
 20
242.1256242787892
 30
0.0
 10
685.746229867542
 20
242.1286856654846
 30
0.0
 10
685.157406724469
 20
242.1121998884103
 30
0.0
 10
683.8763219692868
 20
242.0844928887294
 30
0.0
 10
681.9473704619376
 20
242.0631779674046
 30
0.0
 10
679.6682777272607
 20
242.0704488465267
 30
0.0
 10
677.2734518874894
 20
242.1155771702838
 30
0.0
 10
675.0451747859793
 20
242.1919771868684
 30
0.0
 10
673.2024600663818
 20
242.2805188860465
 30
0.0
 10
672.0626535139293
 20
242.3464597257812
 30
0.0
 10
671.5724501011778
 20
242.377253322417
 30
0.0
 10
671.7022373019574
 20
242.3692776305879
 30
0.0
 10
671.7104353146626
 20
242.3687738457574
 30
0.0
  0
LINE
  5
AA
330
1F
100
AcDbEntity
  8
0
  6
Continuous
 62
     7
370
    25
100
AcDbLine
 10
481.6856184062
 20
253.4809342331
 30
0.0
 11
467.6856184062
 21
253.4809342331
 31
0.0
  0
LINE
  5
AB
330
1F
100
AcDbEntity
  8
0
  6
Continuous
 62
     7
370
    25
100
AcDbLine
 10
685.6856184062
 20
253.4809342331
 30
0.0
 11
671.6856184062
 21
253.4809342331
 31
0.0
  0
LINE
  5
AC
330
1F
100
AcDbEntity
  8
0
  6
Continuous
 62
     1
370
    25
100
AcDbLine
 10
564.1856184062
 20
91.7809342331
 30
0.0
 11
564.1856184062
 21
243.0309342331
 31
0.0
  0
LINE
  5
AD
330
1F
100
AcDbEntity
  8
0
  6
Continuous
 62
     1
370
    25
100
AcDbLine
 10
564.1856184062
 20
-59.4690657669
 30
0.0
 11
564.1856184062
 21
91.7809342331
 31
0.0
  0
LINE
  5
AE
330
1F
100
AcDbEntity
  8
0
  6
Continuous
 62
     1
370
    25
100
AcDbLine
 10
589.1856184062
 20
91.7809342331
 30
0.0
 11
589.1856184062
 21
243.0309342331
 31
0.0
  0
LINE
  5
AF
330
1F
100
AcDbEntity
  8
0
  6
Continuous
 62
     1
370
    25
100
AcDbLine
 10
589.1856184062
 20
-59.4690657669
 30
0.0
 11
589.1856184062
 21
91.7809342331
 31
0.0
  0
ARC
  5
B0
330
1F
100
AcDbEntity
  8
0
  6
Continuous
 62
     7
370
    25
100
AcDbCircle
 10
5143.3241444162
 20
513.6643772246
 30
0.0
 40
5151.625000000027
100
AcDbArc
 50
180.0
 51
181.1289443506
  0
ARC
  5
B1
330
1F
100
AcDbEntity
  8
0
  6
Continuous
 62
     7
370
    25
100
AcDbCircle
 10
-4857.4258555839
 20
513.6643772246
 30
0.0
 40
5151.625000000028
100
AcDbArc
 50
358.8710556494
 51
0.0
  0
LINE
  5
B2
330
1F
100
AcDbEntity
  8
0
  6
Continuous
 62
     7
370
    25
100
AcDbLine
 10
294.1991444162
 20
513.6643772246
 30
0.0
 11
294.1991444162
 21
538.6643772246
 31
0.0
  0
LINE
  5
B3
330
1F
100
AcDbEntity
  8
0
  6
Continuous
 62
     7
370
    25
100
AcDbLine
 10
-8.3008555838
 20
538.6643772246
 30
0.0
 11
-8.3008555838
 21
513.6643772246
 31
0.0
  0
ARC
  5
B4
330
1F
100
AcDbEntity
  8
0
  6
Continuous
 62
     7
370
    25
100
AcDbCircle
 10
5143.3241444162
 20
538.6643772246
 30
0.0
 40
5151.625000000027
100
AcDbArc
 50
178.8710556494
 51
180.0
  0
ARC
  5
B5
330
1F
100
AcDbEntity
  8
0
  6
Continuous
 62
     7
370
    25
100
AcDbCircle
 10
-4857.4258555839
 20
538.6643772246
 30
0.0
 40
5151.625000000028
100
AcDbArc
 50
0.0
 51
1.1289443506
  0
LINE
  5
B6
330
1F
100
AcDbEntity
  8
0
  6
Continuous
 62
     7
370
    25
100
AcDbLine
 10
293.1991444162
 20
412.1643772246
 30
0.0
 11
-7.3008555838
 21
412.1643772246
 31
0.0
  0
LINE
  5
B7
330
1F
100
AcDbEntity
  8
0
  6
Continuous
 62
     7
370
    25
100
AcDbLine
 10
293.1991444162
 20
640.1643772246
 30
0.0
 11
-7.3008555838
 21
640.1643772246
 31
0.0
  0
LINE
  5
B8
330
1F
100
AcDbEntity
  8
0
  6
Continuous
 62
     1
370
    25
100
AcDbLine
 10
294.1991444162
 20
513.6643772246
 30
0.0
 11
-8.3008555838
 21
513.6643772246
 31
0.0
  0
LINE
  5
B9
330
1F
100
AcDbEntity
  8
0
  6
Continuous
 62
     1
370
    25
100
AcDbLine
 10
294.1991444162
 20
538.6643772246
 30
0.0
 11
-8.3008555838
 21
538.6643772246
 31
0.0
  0
ARC
  5
BA
330
1F
100
AcDbEntity
  8
0
  6
Continuous
 62
     7
370
    25
100
AcDbCircle
 10
-278.6216112992
 20
5092.1559342331
 30
0.0
 40
5151.625000000028
100
AcDbArc
 50
270.0
 51
271.1289443506
  0
ARC
  5
BB
330
1F
100
AcDbEntity
  8
0
  6
Continuous
 62
     7
370
    25
100
AcDbCircle
 10
-278.6216112992
 20
-4908.594065767
 30
0.0
 40
5151.625000000028
100
AcDbArc
 50
89.0816318988
 51
90.0
  0
LINE
  5
BC
330
1F
100
AcDbEntity
  8
0
  6
Continuous
 62
     7
370
    25
100
AcDbLine
 10
-177.1216112992
 20
242.0309342331
 30
0.0
 11
-182.1552262916
 21
242.1276678534
 31
0.0
  0
LINE
  5
BD
330
1F
100
AcDbEntity
  8
0
  6
Continuous
 62
     7
370
    25
100
AcDbLine
 10
-278.6216112992
 20
243.0309342331
 30
0.0
 11
-303.6216112992
 21
243.0309342331
 31
0.0
  0
LINE
  5
BE
330
1F
100
AcDbEntity
  8
0
  6
Continuous
 62
     7
370
    25
100
AcDbLine
 10
-303.6216112992
 20
-59.4690657669
 30
0.0
 11
-278.6216112992
 21
-59.4690657669
 31
0.0
  0
ARC
  5
BF
330
1F
100
AcDbEntity
  8
0
  6
Continuous
 62
     7
370
    25
100
AcDbCircle
 10
-303.6216112992
 20
5092.1559342331
 30
0.0
 40
5151.625000000028
100
AcDbArc
 50
268.8710556494
 51
270.0
  0
LINE
  5
C0
330
1F
100
AcDbEntity
  8
0
  6
Continuous
 62
     7
370
    25
100
AcDbLine
 10
-400.0471868873
 20
242.1284319995
 30
0.0
 11
-405.1216112992
 21
242.0309342331
 31
0.0
  0
ARC
  5
C1
330
1F
100
AcDbEntity
  8
0
  6
Continuous
 62
     7
370
    25
100
AcDbCircle
 10
-303.6216112992
 20
-4908.594065767
 30
0.0
 40
5151.625000000027
100
AcDbArc
 50
90.0
 51
90.9178700347
  0
LINE
  5
C2
330
1F
100
AcDbEntity
  8
0
  6
Continuous
 62
     7
370
    25
100
AcDbLine
 10
-182.1216112992
 20
242.1261561206
 30
0.0
 11
-182.1216112992
 21
253.4809342331
 31
0.0
  0
LINE
  5
C3
330
1F
100
AcDbEntity
  8
0
  6
Continuous
 62
     7
370
    25
100
AcDbLine
 10
-196.1216112992
 20
253.4809342331
 30
0.0
 11
-196.1216112992
 21
242.3660410374
 31
0.0
  0
LINE
  5
C4
330
1F
100
AcDbEntity
  8
0
  6
Continuous
 62
     7
370
    25
100
AcDbLine
 10
-386.1216112992
 20
242.3688086703
 30
0.0
 11
-386.1216112992
 21
253.4809342331
 31
0.0
  0
LINE
  5
C5
330
1F
100
AcDbEntity
  8
0
  6
Continuous
 62
     7
370
    25
100
AcDbLine
 10
-400.1216112992
 20
253.4809342331
 30
0.0
 11
-400.1216112992
 21
242.1250275249
 31
0.0
  0
LINE
  5
C6
330
1F
100
AcDbEntity
  8
0
  6
Continuous
 62
     7
370
    25
100
AcDbLine
 10
-177.1216112992
 20
242.0309342331
 30
0.0
 11
-177.1216112992
 21
-58.4690657669
 31
0.0
  0
SPLINE
  5
C7
330
1F
100
AcDbEntity
  8
0
  6
Continuous
 62
     7
370
    25
100
AcDbSpline
210
0.0
220
0.0
230
1.0
 70
     8
 71
     3
 72
     9
 73
     5
 74
     0
 42
0.00000001
 43
0.00000001
 40
0.0
 40
0.0
 40
0.0
 40
0.0
 40
0.5639115230564619
 40
1.0
 40
1.0
 40
1.0
 40
1.0
 10
-194.9056913033271
 20
242.2990535929842
 30
0.0
 10
-195.3032851521384
 20
242.3219681271389
 30
0.0
 10
-196.0083493910392
 20
242.3626031083687
 30
0.0
 10
-196.0388853414674
 20
242.3649708036837
 30
0.0
 10
-196.0522017175816
 20
242.3660033283275
 30
0.0
  0
SPLINE
  5
C8
330
1F
100
AcDbEntity
  8
0
  6
Continuous
 62
     7
370
    25
100
AcDbSpline
210
0.0
220
0.0
230
1.0
 70
     8
 71
     3
 72
    15
 73
    11
 74
     0
 42
0.00000001
 43
0.00000001
 40
0.0
 40
0.0
 40
0.0
 40
0.0
 40
0.1201830946738824
 40
0.2527580351109185
 40
0.3853800595297083
 40
0.5179967366134006
 40
0.6505275626490516
 40
0.7830330834619837
 40
0.9156671207593494
 40
1.0
 40
1.0
 40
1.0
 40
1.0
 10
-182.1551295284605
 20
242.1261376178857
 30
0.0
 10
-182.2053410929878
 20
242.1246617100278
 30
0.0
 10
-182.3109414390615
 20
242.1215577163159
 30
0.0
 10
-183.4264050898036
 20
242.093955398419
 30
0.0
 10
-185.1496840042557
 20
242.0681871585135
 30
0.0
 10
-187.3387423016396
 20
242.0638907896951
 30
0.0
 10
-189.7254644903391
 20
242.0960644745613
 30
0.0
 10
-192.0345454411178
 20
242.1634068117545
 30
0.0
 10
-193.8085886745111
 20
242.2406459271818
 30
0.0
 10
-194.5986156769682
 20
242.2827054683062
 30
0.0
 10
-194.9056913033271
 20
242.2990535929842
 30
0.0
  0
LINE
  5
C9
330
1F
100
AcDbEntity
  8
0
  6
Continuous
 62
     7
370
    25
100
AcDbLine
 10
-405.1216112992
 20
242.0309342331
 30
0.0
 11
-405.1216112992
 21
-58.4690657669
 31
0.0
  0
SPLINE
  5
CA
330
1F
100
AcDbEntity
  8
0
  6
Continuous
 62
     7
370
    25
100
AcDbSpline
210
0.0
220
0.0
230
1.0
 70
     8
 71
     3
 72
     9
 73
     5
 74
     0
 42
0.00000001
 43
0.00000001
 40
0.0
 40
0.0
 40
0.0
 40
0.0
 40
0.5713649175149358
 40
1.0
 40
1.0
 40
1.0
 40
1.0
 10
-398.9340849427546
 20
242.0985483404563
 30
0.0
 10
-399.3279424832847
 20
242.1076410032497
 30
0.0
 10
-400.0172699663988
 20
242.1235549358601
 30
0.0
 10
-400.0382765191598
 20
242.1245748003948
 30
0.0
 10
-400.0472806646351
 20
242.1250119501138
 30
0.0
  0
SPLINE
  5
CB
330
1F
100
AcDbEntity
  8
0
  6
Continuous
 62
     7
370
    25
100
AcDbSpline
210
0.0
220
0.0
230
1.0
 70
     8
 71
     3
 72
    15
 73
    11
 74
     0
 42
0.00000001
 43
0.00000001
 40
0.0
 40
0.0
 40
0.0
 40
0.0
 40
0.1231202276462795
 40
0.25512471748337
 40
0.3873295041176934
 40
0.5197089793545467
 40
0.6520421650232276
 40
0.7842121620922258
 40
0.9163240008365728
 40
1.0
 40
1.0
 40
1.0
 40
1.0
 10
-386.1464094284082
 20
242.3687749986583
 30
0.0
 10
-386.2036165124318
 20
242.3651154485703
 30
0.0
 10
-386.3221587002476
 20
242.3575322780371
 30
0.0
 10
-387.4596366787322
 20
242.2901200713754
 30
0.0
 10
-389.1947777599472
 20
242.2043553007622
 30
0.0
 10
-391.3913328771924
 20
242.12437483847
 30
0.0
 10
-393.781770168498
 20
242.0742995799054
 30
0.0
 10
-396.0875368280067
 20
242.062195805077
 30
0.0
 10
-397.850572445827
 20
242.0782569125365
 30
0.0
 10
-398.6313305545347
 20
242.0928785222832
 30
0.0
 10
-398.9340849427546
 20
242.0985483404564
 30
0.0
  0
LINE
  5
CC
330
1F
100
AcDbEntity
  8
0
  6
Continuous
 62
     7
370
    25
100
AcDbLine
 10
-182.1216112992
 20
253.4809342331
 30
0.0
 11
-196.1216112992
 21
253.4809342331
 31
0.0
  0
LINE
  5
CD
330
1F
100
AcDbEntity
  8
0
  6
Continuous
 62
     7
370
    25
100
AcDbLine
 10
-386.1216112992
 20
253.4809342331
 30
0.0
 11
-400.1216112992
 21
253.4809342331
 31
0.0
  0
LINE
  5
CE
330
1F
100
AcDbEntity
  8
0
  6
Continuous
 62
     1
370
    25
100
AcDbLine
 10
-278.6216112992
 20
243.0309342331
 30
0.0
 11
-278.6216112992
 21
-59.4690657669
 31
0.0
  0
LINE
  5
CF
330
1F
100
AcDbEntity
  8
0
  6
Continuous
 62
     1
370
    25
100
AcDbLine
 10
-303.6216112992
 20
243.0309342331
 30
0.0
 11
-303.6216112992
 21
-59.4690657669
 31
0.0
  0
ARC
  5
D0
330
1F
100
AcDbEntity
  8
0
  6
Continuous
 62
     7
370
    25
100
AcDbCircle
 10
-4857.4258555839
 20
-308.8342350501
 30
0.0
 40
5151.625000000028
100
AcDbArc
 50
0.0
 51
1.1289443506
  0
ARC
  5
D1
330
1F
100
AcDbEntity
  8
0
  6
Continuous
 62
     7
370
    25
100
AcDbCircle
 10
5143.3241444162
 20
-308.8342350501
 30
0.0
 40
5151.625000000027
100
AcDbArc
 50
178.8710556494
 51
180.0
  0
LINE
  5
D2
330
1F
100
AcDbEntity
  8
0
  6
Continuous
 62
     7
370
    25
100
AcDbLine
 10
-8.3008555838
 20
-308.8342350501
 30
0.0
 11
-8.3008555838
 21
-333.8342350501
 31
0.0
  0
LINE
  5
D3
330
1F
100
AcDbEntity
  8
0
  6
Continuous
 62
     7
370
    25
100
AcDbLine
 10
294.1991444162
 20
-333.8342350501
 30
0.0
 11
294.1991444162
 21
-308.8342350501
 31
0.0
  0
ARC
  5
D4
330
1F
100
AcDbEntity
  8
0
  6
Continuous
 62
     7
370
    25
100
AcDbCircle
 10
-4857.4258555839
 20
-333.8342350501
 30
0.0
 40
5151.625000000028
100
AcDbArc
 50
358.8710556494
 51
0.0
  0
ARC
  5
D5
330
1F
100
AcDbEntity
  8
0
  6
Continuous
 62
     7
370
    25
100
AcDbCircle
 10
5143.3241444162
 20
-333.8342350501
 30
0.0
 40
5151.625000000027
100
AcDbArc
 50
180.0
 51
181.1289443506
  0
CIRCLE
  5
D6
330
1F
100
AcDbEntity
  8
0
  6
Continuous
 62
     7
370
    25
100
AcDbCircle
 10
142.9491444162
 20
-219.3342350501
 30
0.0
 40
5.0
  0
CIRCLE
  5
D7
330
1F
100
AcDbEntity
  8
0
  6
Continuous
 62
     7
370
    25
100
AcDbCircle
 10
142.9491444162
 20
-219.3342350501
 30
0.0
 40
7.0
  0
CIRCLE
  5
D8
330
1F
100
AcDbEntity
  8
0
  6
Continuous
 62
     7
370
    25
100
AcDbCircle
 10
142.9491444162
 20
-423.3342350501
 30
0.0
 40
7.0
  0
CIRCLE
  5
D9
330
1F
100
AcDbEntity
  8
0
  6
Continuous
 62
     7
370
    25
100
AcDbCircle
 10
142.9491444162
 20
-423.3342350501
 30
0.0
 40
5.0
  0
LINE
  5
DA
330
1F
100
AcDbEntity
  8
0
  6
Continuous
 62
     7
370
    25
100
AcDbLine
 10
-7.3008555838
 20
-207.3342350501
 30
0.0
 11
293.1991444162
 21
-207.3342350501
 31
0.0
  0
LINE
  5
DB
330
1F
100
AcDbEntity
  8
0
  6
Continuous
 62
     7
370
    25
100
AcDbLine
 10
-7.3008555838
 20
-435.3342350501
 30
0.0
 11
293.1991444162
 21
-435.3342350501
 31
0.0
  0
LINE
  5
DC
330
1F
100
AcDbEntity
  8
0
  6
Continuous
 62
     1
370
    25
100
AcDbLine
 10
-8.3008555838
 20
-308.8342350501
 30
0.0
 11
294.1991444162
 21
-308.8342350501
 31
0.0
  0
LINE
  5
DD
330
1F
100
AcDbEntity
  8
0
  6
Continuous
 62
     1
370
    25
100
AcDbLine
 10
-8.3008555838
 20
-333.8342350501
 30
0.0
 11
294.1991444162
 21
-333.8342350501
 31
0.0
  0
INSERT
  5
E9
330
1F
100
AcDbEntity
  8
FORMAT
 62
     7
100
AcDbBlockReference
  2
SW_CENTERMARKSYMBOL_1
 10
142.9491444162
 20
-219.3342350501
 30
0.0
  0
INSERT
  5
F5
330
1F
100
AcDbEntity
  8
FORMAT
 62
     7
100
AcDbBlockReference
  2
SW_CENTERMARKSYMBOL_2
 10
142.9491444162
 20
-423.3342350501
 30
0.0
  0
SPLINE
  5
F6
330
1F
100
AcDbEntity
  8
0
  6
Continuous
 62
     7
370
    25
100
AcDbSpline
210
0.0
220
0.0
230
1.0
 70
     8
 71
     3
 72
    10
 73
     6
 74
     0
 42
0.00000001
 43
0.00000001
 40
0.0
 40
0.0
 40
0.0
 40
0.0
 40
0.2330175669767275
 40
0.6191555020862551
 40
1.0
 40
1.0
 40
1.0
 40
1.0
 10
513.314018449828
 20
-192.9768868582767
 30
0.0
 10
507.6555716911421
 20
-196.2399650383433
 30
0.0
 10
492.6204029295847
 20
-204.9103534349728
 30
0.0
 10
468.4972558761291
 20
-219.1888750466243
 30
0.0
 10
450.1133821743837
 20
-230.3310382304751
 30
0.0
 10
440.9848847692306
 20
-235.8636702187985
 30
0.0
  0
SPLINE
  5
F7
330
1F
100
AcDbEntity
  8
0
  6
Continuous
 62
     7
370
    25
100
AcDbSpline
210
0.0
220
0.0
230
1.0
 70
     8
 71
     3
 72
    11
 73
     7
 74
     0
 42
0.00000001
 43
0.00000001
 40
0.0
 40
0.0
 40
0.0
 40
0.0
 40
0.0743969934541329
 40
0.4606241548135547
 40
0.8468351557256016
 40
0.9999999999999999
 40
0.9999999999999999
 40
0.9999999999999999
 40
0.9999999999999999
 10
591.1949528072906
 20
-496.0640660964211
 30
0.0
 10
593.0288648494939
 20
-495.0720517866666
 30
0.0
 10
604.3834121937105
 20
-488.930059593456
 30
0.0
 10
625.1138687649069
 20
-477.3651260169621
 30
0.0
 10
647.7238650994077
 20
-464.6367590839352
 30
0.0
 10
660.8018757185756
 20
-457.0486573484289
 30
0.0
 10
664.5155968237752
 20
-454.8938882184628
 30
0.0
  0
LINE
  5
F8
330
1F
100
AcDbEntity
  8
0
  6
Continuous
 62
     7
370
    25
100
AcDbLine
 10
530.97365285
 20
-182.7403784414
 30
0.0
 11
513.2959833203
 21
-192.9454798392
 31
0.0
  0
LINE
  5
F9
330
1F
100
AcDbEntity
  8
0
  6
Continuous
 62
     7
370
    25
100
AcDbLine
 10
664.5336916315
 20
-454.9252607094
 30
0.0
 11
682.2113611612
 21
-444.7201593116
 31
0.0
  0
SPLINE
  5
FA
330
1F
100
AcDbEntity
  8
0
  6
Continuous
 62
     7
370
    25
100
AcDbSpline
210
0.0
220
0.0
230
1.0
 70
     8
 71
     3
 72
    11
 73
     7
 74
     0
 42
0.00000001
 43
0.00000001
 40
0.0
 40
0.0
 40
0.0
 40
0.0
 40
0.0744019076775928
 40
0.4606266763743149
 40
0.846835284725422
 40
0.9999999999999999
 40
0.9999999999999999
 40
0.9999999999999999
 40
0.9999999999999999
 10
604.3127890235406
 20
-141.6013577568594
 30
0.0
 10
602.4787444419724
 20
-142.5934436630152
 30
0.0
 10
591.1240643497497
 20
-148.7355070575526
 30
0.0
 10
570.3934754930233
 20
-160.3005127142786
 30
0.0
 10
547.7834594347573
 20
-173.0288914830722
 30
0.0
 10
534.7054289575119
 20
-180.6170047868251
 30
0.0
 10
530.9916879794919
 20
-182.7717854604928
 30
0.0
  0
SPLINE
  5
FB
330
1F
100
AcDbEntity
  8
0
  6
Continuous
 62
     7
370
    25
100
AcDbSpline
210
0.0
220
0.0
230
1.0
 70
     8
 71
     3
 72
    10
 73
     6
 74
     0
 42
0.00000001
 43
0.00000001
 40
0.0
 40
0.0
 40
0.0
 40
0.0
 40
0.2330157033703818
 40
0.6191491916562547
 40
1.0
 40
1.0
 40
1.0
 40
1.0
 10
682.1932663534386
 20
-444.6887868206792
 30
0.0
 10
687.8517330482333
 20
-441.4256972039254
 30
0.0
 10
702.8869217905441
 20
-432.7552974441993
 30
0.0
 10
727.0103461998649
 20
-418.4766106709613
 30
0.0
 10
745.3944760227361
 20
-407.3342916726219
 30
0.0
 10
754.5232296810628
 20
-401.8015040836333
 30
0.0
  0
LINE
  5
FC
330
1F
100
AcDbEntity
  8
0
  6
Continuous
 62
     7
370
    25
100
AcDbLine
 10
532.6287805597
 20
-237.6016195631
 30
0.0
 11
532.6287805597
 21
-228.4349839964
 31
0.0
  0
LINE
  5
FD
330
1F
100
AcDbEntity
  8
0
  6
Continuous
 62
     7
370
    25
100
AcDbLine
 10
518.6287805597
 20
-228.4349839964
 30
0.0
 11
518.6287805597
 21
-237.7409257692
 31
0.0
  0
LINE
  5
FE
330
1F
100
AcDbEntity
  8
0
  6
Continuous
 62
     7
370
    25
100
AcDbLine
 10
676.8785639218
 20
-154.4666881183
 30
0.0
 11
676.8785639218
 21
-145.1613565905
 31
0.0
  0
LINE
  5
FF
330
1F
100
AcDbEntity
  8
0
  6
Continuous
 62
     7
370
    25
100
AcDbLine
 10
662.8785639218
 20
-145.1613565905
 30
0.0
 11
662.8785639218
 21
-154.3273015395
 31
0.0
  0
LWPOLYLINE
  5
100
330
1F
100
AcDbEntity
  8
0
  6
Continuous
 62
     7
370
    25
100
AcDbPolyline
 90
      133
 70
   128
 43
0.0
 10
410.9007053122
 20
-304.0354225486
 10
411.0210423619
 20
-298.267292078
 10
411.3817809089
 20
-292.6511664783
 10
411.9821037644
 20
-287.1997680804
 10
412.8206510039
 20
-281.9254460551
 10
413.8955230484
 20
-276.840148438
 10
415.2042849669
 20
-271.9553950639
 10
416.7439719927
 20
-267.2822514703
 10
418.5110962395
 20
-262.8313038304
 10
420.5016546025
 20
-258.6126349723
 10
422.7111378268
 20
-254.6358015378
 10
425.1345407222
 20
-250.9098123337
 10
427.7663735017
 20
-247.443107924
 10
430.6006742176
 20
-244.243541509
 10
433.6310222672
 20
-241.318361136
 10
436.8505529375
 20
-238.6741932792
 10
440.251972956
 20
-236.3170278293
 10
443.8275770123
 20
-234.2522045242
 10
447.5692652132
 20
-232.4844008527
 10
451.4685614315
 20
-231.0176214589
 10
455.5166325071
 20
-229.8551890698
 10
459.704308257
 20
-228.9997369685
 10
464.0221022488
 20
-228.4532030294
 10
468.4602332903
 20
-228.2168253275
 10
473.0086475872
 20
-228.2911393343
 10
477.6570415183
 20
-228.6759767048
 10
482.3948849762
 20
-229.3704656584
 10
487.2114452216
 20
-230.3730329544
 10
492.0958111963
 20
-231.6814074554
 10
497.0369182406
 20
-233.2926252723
 10
502.0235731577
 20
-235.2030364785
 10
507.0444795703
 20
-237.4083133783
 10
512.0882635105
 20
-239.90346031
 10
517.1434991855
 20
-242.6828249634
 10
522.1987348604
 20
-245.7401111837
 10
527.2425188006
 20
-249.0683932342
 10
532.2634252132
 20
-252.6601314855
 10
537.2500801303
 20
-256.5071894953
 10
542.1911871746
 20
-260.60085244
 10
547.0755531494
 20
-264.9318468561
 10
551.8921133947
 20
-269.4903616485
 10
556.6299568526
 20
-274.2660703148
 10
561.2783507837
 20
-279.248154339
 10
565.8267650806
 20
-284.4253276984
 10
570.2648961221
 20
-289.7858624301
 10
574.5826901139
 20
-295.3176151988
 10
578.7703658638
 20
-301.0080548052
 10
582.8184369394
 20
-306.8442905736
 10
586.7177331577
 20
-312.8131015526
 10
590.4594213586
 20
-318.9009664658
 10
594.0350254149
 20
-325.0940943408
 10
597.4364454334
 20
-331.3784557513
 10
600.6559761037
 20
-337.7398145974
 10
603.6863241533
 20
-344.1637603552
 10
606.5206248692
 20
-350.6357407215
 10
609.1524576488
 20
-357.141094579
 10
611.5758605442
 20
-363.665085209
 10
613.7853437684
 20
-370.1929336744
 10
615.7759021314
 20
-376.7098522988
 10
617.5430263782
 20
-383.2010781654
 10
619.082713404
 20
-389.65190656
 10
620.3914753225
 20
-396.0477242812
 10
621.466347367
 20
-402.374042745
 10
622.3048946066
 20
-408.6165308052
 10
622.905217462
 20
-414.7610472186
 10
623.265956009
 20
-420.7936726791
 10
623.3862930587
 20
-426.70074135
 10
623.265956009
 20
-432.4688718206
 10
622.905217462
 20
-438.0849974202
 10
622.3048946066
 20
-443.5363958181
 10
621.466347367
 20
-448.8107178435
 10
620.3914753225
 20
-453.8960154606
 10
619.082713404
 20
-458.7807688347
 10
617.5430263782
 20
-463.4539124283
 10
615.7759021314
 20
-467.9048600681
 10
613.7853437684
 20
-472.1235289262
 10
611.5758605442
 20
-476.1003623607
 10
609.1524576488
 20
-479.8263515648
 10
606.5206248692
 20
-483.2930559746
 10
603.6863241533
 20
-486.4926223895
 10
600.6559761037
 20
-489.4178027626
 10
597.4364454334
 20
-492.0619706194
 10
594.0350254149
 20
-494.4191360693
 10
590.4594213586
 20
-496.4839593744
 10
586.7177331577
 20
-498.2517630458
 10
582.8184369394
 20
-499.7185424396
 10
578.7703658638
 20
-500.8809748288
 10
574.5826901139
 20
-501.73642693
 10
570.2648961221
 20
-502.2829608692
 10
565.8267650806
 20
-502.5193385711
 10
561.2783507837
 20
-502.4450245643
 10
556.6299568526
 20
-502.0601871938
 10
551.8921133947
 20
-501.3656982401
 10
547.0755531494
 20
-500.3631309441
 10
542.1911871746
 20
-499.0547564431
 10
537.2500801303
 20
-497.4435386262
 10
532.2634252132
 20
-495.53312742
 10
527.2425188006
 20
-493.3278505203
 10
522.1987348604
 20
-490.8327035885
 10
517.1434991855
 20
-488.0533389351
 10
512.0882635105
 20
-484.9960527148
 10
507.0444795703
 20
-481.6677706644
 10
502.0235731577
 20
-478.076032413
 10
497.0369182406
 20
-474.2289744032
 10
492.0958111963
 20
-470.1353114586
 10
487.2114452216
 20
-465.8043170424
 10
482.3948849762
 20
-461.2458022501
 10
477.6570415183
 20
-456.4700935837
 10
473.0086475872
 20
-451.4880095595
 10
468.4602332903
 20
-446.3108362002
 10
464.0221022488
 20
-440.9503014685
 10
459.704308257
 20
-435.4185486998
 10
455.5166325071
 20
-429.7281090933
 10
451.4685614315
 20
-423.891873325
 10
447.5692652132
 20
-417.9230623459
 10
443.8275770123
 20
-411.8351974328
 10
440.251972956
 20
-405.6420695577
 10
436.8505529375
 20
-399.3577081472
 10
433.6310222672
 20
-392.9963493011
 10
430.6006742176
 20
-386.5724035433
 10
427.7663735017
 20
-380.1004231771
 10
425.1345407222
 20
-373.5950693195
 10
422.7111378268
 20
-367.0710786895
 10
420.5016546025
 20
-360.5432302241
 10
418.5110962395
 20
-354.0263115998
 10
416.7439719927
 20
-347.5350857331
 10
415.2042849669
 20
-341.0842573386
 10
413.8955230484
 20
-334.6884396173
 10
412.8206510039
 20
-328.3621211536
 10
411.9821037644
 20
-322.1196330934
 10
411.3817809089
 20
-315.97511668
 10
411.0210423619
 20
-309.9424912194
 10
410.9007053122
 20
-304.0354225486
  0
SPLINE
  5
101
330
1F
100
AcDbEntity
  8
0
  6
Continuous
 62
     7
370
    25
100
AcDbSpline
210
0.0
220
0.0
230
1.0
 70
     8
 71
     3
 72
    12
 73
     8
 74
     0
 42
0.00000001
 43
0.00000001
 40
0.0
 40
0.0
 40
0.0
 40
0.0
 40
0.2451017420268757
 40
0.4902061307909296
 40
0.7352502374606593
 40
0.9803257082891965
 40
1.0
 40
1.0
 40
1.0
 40
1.0
 10
524.2769243226726
 20
-241.6941072526087
 30
0.0
 10
523.5208483825592
 20
-241.555588597196
 30
0.0
 10
522.0086883378276
 20
-241.2785497905735
 30
0.0
 10
520.1685393947204
 20
-240.3562354822033
 30
0.0
 10
519.0160033201547
 20
-239.1888958410059
 30
0.0
 10
518.5195543870977
 20
-238.2571503898327
 30
0.0
 10
518.648398746288
 20
-237.7788676446588
 30
0.0
 10
518.6579735292214
 20
-237.7433251226994
 30
0.0
  0
SPLINE
  5
102
330
1F
100
AcDbEntity
  8
0
  6
Continuous
 62
     7
370
    25
100
AcDbSpline
210
0.0
220
0.0
230
1.0
 70
     8
 71
     3
 72
    13
 73
     9
 74
     0
 42
0.00000001
 43
0.00000001
 40
0.0
 40
0.0
 40
0.0
 40
0.0
 40
0.1150066168384884
 40
0.3062267921829754
 40
0.4973801029374138
 40
0.6882976901962746
 40
0.8791312686235726
 40
1.0
 40
1.0
 40
1.0
 40
1.0
 10
532.5337587876195
 20
-237.5997369963607
 30
0.0
 10
532.5431772258834
 20
-237.8871864424053
 30
0.0
 10
532.5682555928175
 20
-238.6525747669798
 30
0.0
 10
531.7249801300538
 20
-239.8265206174146
 30
0.0
 10
530.1913321444531
 20
-240.9186727911603
 30
0.0
 10
528.113141995949
 20
-241.615300982975
 30
0.0
 10
526.0420808183108
 20
-241.8449657039827
 30
0.0
 10
524.7701432532015
 20
-241.7362600272957
 30
0.0
 10
524.2769243226726
 20
-241.6941072526087
 30
0.0
  0
LWPOLYLINE
  5
103
330
1F
100
AcDbEntity
  8
0
  6
Continuous
 62
     7
370
    25
100
AcDbPolyline
 90
      122
 70
   128
 43
0.0
 10
428.2248214513
 20
-314.0364219184
 10
428.3446759685
 20
-308.7761280445
 10
428.7039164138
 20
-303.6683960729
 10
429.3015743383
 20
-298.7269955461
 10
430.1360385619
 20
-293.9652476063
 10
431.2050595167
 20
-289.395989084
 10
432.5057553111
 20
-285.0315378924
 10
434.0346194992
 20
-280.8836598202
 10
435.7875305335
 20
-276.9635368135
 10
437.7597628757
 20
-273.2817368307
 10
439.9459997362
 20
-269.8481853537
 10
442.3403474069
 20
-266.6721386302
 10
444.9363511497
 20
-263.7621587208
 10
447.7270125976
 20
-261.1260904166
 10
450.7048086207
 20
-258.7710400919
 10
453.8617116073
 20
-256.703356546
 10
457.1892111051
 20
-254.928613888
 10
460.6783367639
 20
-253.4515965105
 10
464.3196825176
 20
-252.2762861912
 10
468.1034319419
 20
-251.4058513589
 10
472.0193847174
 20
-250.842638552
 10
476.0569841276
 20
-250.5881660926
 10
480.2053455184
 20
-250.6431199936
 10
484.4532856409
 20
-251.007352109
 10
488.7893527996
 20
-251.6798805332
 10
493.201857724
 20
-252.6588922487
 10
497.678905081
 20
-253.9417480129
 10
502.2084255423
 20
-255.5249894735
 10
506.7782083217
 20
-257.4043484914
 10
511.3759340928
 20
-259.5747586469
 10
515.9892081996
 20
-262.0303688981
 10
520.6055940708
 20
-264.7645593538
 10
525.2126467464
 20
-267.7699591199
 10
529.7979464267
 20
-271.0384661701
 10
534.3491319545
 20
-274.5612691872
 10
538.8539341383
 20
-278.328871317
 10
543.3002088278
 20
-282.3311157704
 10
547.6759696526
 20
-286.5572132038
 10
551.969420335
 20
-290.9957708058
 10
556.1689864912
 20
-295.6348230098
 10
560.2633468332
 20
-300.4618637513
 10
564.2414636895
 20
-305.4638801817
 10
568.0926127602
 20
-310.6273877492
 10
571.8064120284
 20
-315.9384665502
 10
575.3728497479
 20
-321.3827988553
 10
578.7823114331
 20
-326.9457077071
 10
582.0256057781
 20
-332.6121964868
 10
585.0939894347
 20
-338.3669893427
 10
587.979190583
 20
-344.1945723704
 10
590.673431231
 20
-350.0792354366
 10
593.169448182
 20
-356.0051145299
 10
595.4605126158
 20
-361.956234528
 10
597.5404482276
 20
-367.9165522636
 10
599.4036478788
 20
-373.8699997738
 10
601.0450887126
 20
-379.8005276166
 10
602.4603456945
 20
-385.6921481376
 10
603.6456035421
 20
-391.5289785693
 10
604.5976670097
 20
-397.295283849
 10
605.3139695026
 20
-402.9755190369
 10
605.7925799958
 20
-408.5543712234
 10
606.0322082401
 20
-414.0168008093
 10
606.0322082401
 20
-419.3480820501
 10
605.7925799958
 20
-424.5338427541
 10
605.3139695026
 20
-429.5601030274
 10
604.5976670097
 20
-434.4133129608
 10
603.6456035421
 20
-439.0803891585
 10
602.4603456945
 20
-443.5487500081
 10
601.0450887126
 20
-447.8063495988
 10
599.4036478788
 20
-451.8417101948
 10
597.5404482276
 20
-455.6439531773
 10
595.4605126158
 20
-459.2028283716
 10
593.169448182
 20
-462.5087416794
 10
590.673431231
 20
-465.5527809427
 10
587.979190583
 20
-468.3267399699
 10
585.0939894347
 20
-470.823140658
 10
582.0256057781
 20
-473.035253152
 10
578.7823114331
 20
-474.9571139877
 10
575.3728497479
 20
-476.5835421682
 10
571.8064120284
 20
-477.9101531305
 10
568.0926127602
 20
-478.9333705661
 10
564.2414636895
 20
-479.6504360617
 10
560.2633468332
 20
-480.0594165354
 10
556.1689864912
 20
-480.1592094482
 10
551.969420335
 20
-479.9495457761
 10
547.6759696526
 20
-479.4309907353
 10
543.3002088278
 20
-478.6049422584
 10
538.8539341383
 20
-477.4736272262
 10
534.3491319545
 20
-476.0400954638
 10
529.7979464267
 20
-474.3082115196
 10
525.2126467464
 20
-472.2826442464
 10
520.6055940708
 20
-469.9688542156
 10
515.9892081996
 20
-467.3730789958
 10
511.3759340928
 20
-464.5023163383
 10
506.7782083217
 20
-461.3643053115
 10
502.2084255423
 20
-457.9675054385
 10
497.678905081
 20
-454.3210738911
 10
493.201857724
 20
-450.4348408041
 10
488.7893527996
 20
-446.3192827749
 10
484.4532856409
 20
-441.9854946201
 10
480.2053455184
 20
-437.4451594667
 10
476.0569841276
 20
-432.7105172552
 10
472.0193847174
 20
-427.7943317442
 10
468.1034319419
 20
-422.7098561006
 10
464.3196825176
 20
-417.4707971717
 10
460.6783367639
 20
-412.0912785342
 10
457.1892111051
 20
-406.5858024193
 10
453.8617116073
 20
-400.9692106172
 10
450.7048086207
 20
-395.2566444664
 10
447.7270125976
 20
-389.4635040353
 10
444.9363511497
 20
-383.6054066062
 10
442.3403474069
 20
-377.6981445742
 10
439.9459997362
 20
-371.7576428733
 10
437.7597628757
 20
-365.7999160458
 10
435.7875305335
 20
-359.8410250699
 10
434.0346194992
 20
-353.8970340622
 10
432.5057553111
 20
-347.9839669715
 10
431.2050595167
 20
-342.1177643814
 10
430.1360385619
 20
-336.3142405368
 10
429.3015743383
 20
-330.589040712
 10
428.7039164138
 20
-324.9575990335
 10
428.3446759685
 20
-319.4350968725
 10
428.2248214513
 20
-314.0364219184
  0
LWPOLYLINE
  5
104
330
1F
100
AcDbEntity
  8
0
  6
Continuous
 62
     7
370
    25
100
AcDbPolyline
 90
       16
 70
   128
 43
0.0
 10
604.298866024
 20
-141.5821379082
 10
605.0479231228
 20
-141.1816797764
 10
608.7896113237
 20
-139.413876105
 10
612.688907542
 20
-137.9470967111
 10
616.7369786177
 20
-136.784664322
 10
620.9246543676
 20
-135.9292122207
 10
625.2424483594
 20
-135.3826782816
 10
629.6805794008
 20
-135.1463005797
 10
634.2289936978
 20
-135.2206145865
 10
638.8773876288
 20
-135.605451957
 10
643.6152310867
 20
-136.2999409106
 10
648.4317913321
 20
-137.3025082067
 10
653.3161573069
 20
-138.6108827076
 10
658.2572643511
 20
-140.2221005245
 10
663.2439192682
 20
-142.1325117308
 10
664.4266672706
 20
-142.626753021
  0
LWPOLYLINE
  5
105
330
1F
100
AcDbEntity
  8
0
  6
Continuous
 62
     7
370
    25
100
AcDbPolyline
 90
       52
 70
   128
 43
0.0
 10
676.8785639218
 20
-148.7668550579
 10
678.363845296
 20
-149.6123002157
 10
683.419080971
 20
-152.6695864359
 10
688.4628649112
 20
-155.9978684864
 10
693.4837713238
 20
-159.5896067377
 10
698.4704262408
 20
-163.4366647476
 10
703.4115332851
 20
-167.5303276922
 10
708.2958992599
 20
-171.8613221083
 10
713.1124595053
 20
-176.4198369007
 10
717.8503029632
 20
-181.195545567
 10
722.4986968942
 20
-186.1776295913
 10
727.0471111911
 20
-191.3548029506
 10
731.4852422326
 20
-196.7153376823
 10
735.8030362244
 20
-202.247090451
 10
739.9907119743
 20
-207.9375300575
 10
744.0387830499
 20
-213.7737658258
 10
747.9380792682
 20
-219.7425768048
 10
751.6797674692
 20
-225.830441718
 10
755.2553715255
 20
-232.0235695931
 10
758.6567915439
 20
-238.3079310036
 10
761.8763222142
 20
-244.6692898496
 10
764.9066702638
 20
-251.0932356074
 10
767.7409709797
 20
-257.5652159737
 10
770.3728037593
 20
-264.0705698312
 10
772.7962066547
 20
-270.5945604612
 10
775.005689879
 20
-277.1224089266
 10
776.996248242
 20
-283.639327551
 10
778.7633724888
 20
-290.1305534176
 10
780.3030595146
 20
-296.5813818122
 10
781.6118214331
 20
-302.9771995334
 10
782.6866934775
 20
-309.3035179972
 10
783.5252407171
 20
-315.5460060574
 10
784.1255635726
 20
-321.6905224708
 10
784.4863021196
 20
-327.7231479314
 10
784.6066391693
 20
-333.6302166022
 10
784.4863021196
 20
-339.3983470728
 10
784.1255635726
 20
-345.0144726724
 10
783.5252407171
 20
-350.4658710703
 10
782.6866934775
 20
-355.7401930957
 10
781.6118214331
 20
-360.8254907128
 10
780.3030595146
 20
-365.7102440869
 10
778.7633724888
 20
-370.3833876805
 10
776.996248242
 20
-374.8343353204
 10
775.005689879
 20
-379.0530041784
 10
772.7962066547
 20
-383.0298376129
 10
770.3728037593
 20
-386.7558268171
 10
767.7409709797
 20
-390.2225312268
 10
764.9066702638
 20
-393.4220976417
 10
761.8763222142
 20
-396.3472780148
 10
758.6567915439
 20
-398.9914458716
 10
755.2553715255
 20
-401.3486113215
 10
754.522666177
 20
-401.8042082371
  0
SPLINE
  5
106
330
1F
100
AcDbEntity
  8
0
  6
Continuous
 62
     7
370
    25
100
AcDbSpline
210
0.0
220
0.0
230
1.0
 70
     8
 71
     3
 72
    12
 73
     8
 74
     0
 42
0.00000001
 43
0.00000001
 40
0.0
 40
0.0
 40
0.0
 40
0.0
 40
0.2435967076634933
 40
0.4872047646398866
 40
0.7305734543057772
 40
0.9740406733577937
 40
1.0
 40
1.0
 40
1.0
 40
1.0
 10
668.5764699551758
 20
-158.262305474708
 30
0.0
 10
667.8194857053279
 20
-158.1163819201195
 30
0.0
 10
666.3054819372938
 20
-157.824528012279
 30
0.0
 10
664.4556201565474
 20
-156.9053532271492
 30
0.0
 10
663.2850131510927
 20
-155.7616330630797
 30
0.0
 10
662.7769855819349
 20
-154.845283234892
 30
0.0
 10
662.9039431805809
 20
-154.3754626304337
 30
0.0
 10
662.9161755824197
 20
-154.3301952774973
 30
0.0
  0
SPLINE
  5
107
330
1F
100
AcDbEntity
  8
0
  6
Continuous
 62
     7
370
    25
100
AcDbSpline
210
0.0
220
0.0
230
1.0
 70
     8
 71
     3
 72
    13
 73
     9
 74
     0
 42
0.00000001
 43
0.00000001
 40
0.0
 40
0.0
 40
0.0
 40
0.0
 40
0.1111818019754374
 40
0.3029622962160569
 40
0.4946186389790003
 40
0.686238387188177
 40
0.87804398649425
 40
1.0
 40
1.0
 40
1.0
 40
1.0
 10
676.7817534281511
 20
-154.4651917799221
 30
0.0
 10
676.7937488816078
 20
-154.7330575888748
 30
0.0
 10
676.8264356168364
 20
-155.4629723691372
 30
0.0
 10
676.0014765360535
 20
-156.5748545063297
 30
0.0
 10
674.48449216707
 20
-157.6063192219052
 30
0.0
 10
672.41721818212
 20
-158.24711946377
 30
0.0
 10
670.3481881678266
 20
-158.4369783497455
 30
0.0
 10
669.072368393108
 20
-158.3111958711953
 30
0.0
 10
668.5764699551758
 20
-158.262305474708
 30
0.0
  0
LWPOLYLINE
  5
108
330
1F
100
AcDbEntity
  8
0
  6
Continuous
 62
     7
370
    25
100
AcDbPolyline
 90
       29
 70
   128
 43
0.0
 10
530.578528028
 20
-225.577555605
 10
531.5558499543
 20
-226.285034935
 10
532.2359638719
 20
-227.1003216882
 10
532.584766029
 20
-227.9825339827
 10
532.584766029
 20
-228.8874340101
 10
532.2359638719
 20
-229.7696463046
 10
531.5558499543
 20
-230.5849330579
 10
530.578528028
 20
-231.2924123878
 10
529.3530050953
 20
-231.8566083266
 10
527.9407339934
 20
-232.249229734
 10
526.4125318924
 20
-232.4505889333
 10
524.845029227
 20
-232.4505889333
 10
523.316827126
 20
-232.249229734
 10
521.9045560241
 20
-231.8566083266
 10
520.6790330914
 20
-231.2924123878
 10
519.7017111651
 20
-230.5849330579
 10
519.0215972475
 20
-229.7696463046
 10
518.6727950904
 20
-228.8874340101
 10
518.6727950904
 20
-227.9825339827
 10
519.0215972475
 20
-227.1003216882
 10
519.7017111651
 20
-226.285034935
 10
520.6790330914
 20
-225.577555605
 10
521.9045560241
 20
-225.0133596662
 10
523.316827126
 20
-224.6207382588
 10
524.845029227
 20
-224.4193790596
 10
526.4125318924
 20
-224.4193790596
 10
527.9407339934
 20
-224.6207382588
 10
529.3530050953
 20
-225.0133596662
 10
530.578528028
 20
-225.577555605
  0
LWPOLYLINE
  5
109
330
1F
100
AcDbEntity
  8
0
  6
Continuous
 62
     7
370
    25
100
AcDbPolyline
 90
       25
 70
   128
 43
0.0
 10
529.1643144656
 20
-226.3939637169
 10
529.9589075786
 20
-226.9917647162
 10
530.4584096911
 20
-227.6879187245
 10
530.6287805597
 20
-228.4349839964
 10
530.4584096911
 20
-229.1820492684
 10
529.9589075786
 20
-229.8782032766
 10
529.1643144656
 20
-230.476004276
 10
528.1287805597
 20
-230.9347131162
 10
526.9228757852
 20
-231.2230695479
 10
525.6287805597
 20
-231.3214225568
 10
524.3346853342
 20
-231.2230695479
 10
523.1287805597
 20
-230.9347131162
 10
522.0932466538
 20
-230.476004276
 10
521.2986535408
 20
-229.8782032766
 10
520.7991514283
 20
-229.1820492684
 10
520.6287805597
 20
-228.4349839964
 10
520.7991514283
 20
-227.6879187245
 10
521.2986535408
 20
-226.9917647162
 10
522.0932466538
 20
-226.3939637169
 10
523.1287805597
 20
-225.9352548766
 10
524.3346853342
 20
-225.6468984449
 10
525.6287805597
 20
-225.548545436
 10
526.9228757852
 20
-225.6468984449
 10
528.1287805597
 20
-225.9352548766
 10
529.1643144656
 20
-226.3939637169
  0
LWPOLYLINE
  5
10A
330
1F
100
AcDbEntity
  8
0
  6
Continuous
 62
     7
370
    25
100
AcDbPolyline
 90
       29
 70
   128
 43
0.0
 10
664.9288164534
 20
-148.0187849819
 10
663.9514945272
 20
-147.311305652
 10
663.2713806096
 20
-146.4960188987
 10
662.9225784525
 20
-145.6138066042
 10
662.9225784525
 20
-144.7089065768
 10
663.2713806096
 20
-143.8266942823
 10
663.9514945272
 20
-143.011407529
 10
664.9288164534
 20
-142.3039281991
 10
666.1543393861
 20
-141.7397322603
 10
667.5666104881
 20
-141.3471108529
 10
669.094812589
 20
-141.1457516537
 10
670.6623152545
 20
-141.1457516537
 10
672.1905173554
 20
-141.3471108529
 10
673.6027884574
 20
-141.7397322603
 10
674.8283113901
 20
-142.3039281991
 10
675.8056333164
 20
-143.011407529
 10
676.4857472339
 20
-143.8266942823
 10
676.834549391
 20
-144.7089065768
 10
676.834549391
 20
-145.6138066042
 10
676.4857472339
 20
-146.4960188987
 10
675.8056333164
 20
-147.311305652
 10
674.8283113901
 20
-148.0187849819
 10
673.6027884574
 20
-148.5829809207
 10
672.1905173554
 20
-148.9756023281
 10
670.6623152545
 20
-149.1769615273
 10
669.094812589
 20
-149.1769615273
 10
667.5666104881
 20
-148.9756023281
 10
666.1543393861
 20
-148.5829809207
 10
664.9288164534
 20
-148.0187849819
  0
LWPOLYLINE
  5
10B
330
1F
100
AcDbEntity
  8
0
  6
Continuous
 62
     7
370
    25
100
AcDbPolyline
 90
       25
 70
   128
 43
0.0
 10
666.3430300158
 20
-147.2023768701
 10
665.5484369028
 20
-146.6045758707
 10
665.0489347903
 20
-145.9084218625
 10
664.8785639218
 20
-145.1613565905
 10
665.0489347903
 20
-144.4142913185
 10
665.5484369028
 20
-143.7181373103
 10
666.3430300158
 20
-143.1203363109
 10
667.3785639218
 20
-142.6616274707
 10
668.5844686962
 20
-142.373271039
 10
669.8785639218
 20
-142.2749180301
 10
671.1726591473
 20
-142.373271039
 10
672.3785639218
 20
-142.6616274707
 10
673.4140978277
 20
-143.1203363109
 10
674.2086909407
 20
-143.7181373103
 10
674.7081930532
 20
-144.4142913185
 10
674.8785639218
 20
-145.1613565905
 10
674.7081930532
 20
-145.9084218625
 10
674.2086909407
 20
-146.6045758707
 10
673.4140978277
 20
-147.2023768701
 10
672.3785639218
 20
-147.6610857103
 10
671.1726591473
 20
-147.949442142
 10
669.8785639218
 20
-148.0477951509
 10
668.5844686962
 20
-147.949442142
 10
667.3785639218
 20
-147.6610857103
 10
666.3430300158
 20
-147.2023768701
  0
LWPOLYLINE
  5
10C
330
1F
100
AcDbEntity
  8
0
  6
Continuous
 62
     1
370
    25
100
AcDbPolyline
 90
       69
 70
   128
 43
0.0
 10
513.2958960797
 20
-192.9455302022
 10
514.6413879001
 20
-192.1959485223
 10
518.3583068996
 20
-190.3904677586
 10
522.232665108
 20
-188.8829778915
 10
526.2558173173
 20
-187.6768427204
 10
530.4187863016
 20
-186.7747536044
 10
534.7122828493
 20
-186.1787234572
 10
539.1267264909
 20
-185.890082255
 10
543.6522668764
 20
-185.9094740692
 10
548.2788057555
 20
-186.2368556292
 10
552.9960195111
 20
-186.8714964185
 10
557.7933821946
 20
-187.8119803056
 10
562.6601890141
 20
-189.056208703
 10
567.5855802204
 20
-190.6014052508
 10
572.5585653399
 20
-192.4441220111
 10
577.5680476982
 20
-194.5802471624
 10
582.6028491814
 20
-197.0050141741
 10
587.6517351786
 20
-199.713012443
 10
592.7034396509
 20
-202.698199366
 10
597.7466902703
 20
-205.9539138238
 10
602.7702335727
 20
-209.4728910443
 10
607.7628600686
 20
-213.2472788135
 10
612.7134292561
 20
-217.2686549963
 10
617.6108944795
 20
-221.52804633
 10
622.444327579
 20
-226.015948447
 10
627.2029432752
 20
-230.7223470828
 10
631.8761232359
 20
-235.6367404218
 10
636.4534397692
 20
-240.7481625308
 10
640.9246790921
 20
-246.0452078283
 10
645.2798641213
 20
-251.5160565352
 10
649.5092767361
 20
-257.1485010485
 10
653.6034794631
 20
-262.9299731823
 10
657.553336535
 20
-268.8475722115
 10
661.3500342764
 20
-274.8880936588
 10
664.9851007698
 20
-281.0380587588
 10
668.4504247607
 20
-287.2837445346
 10
671.7382737561
 20
-293.6112144191
 10
674.8413112792
 20
-300.0063493527
 10
677.7526132402
 20
-306.4548792888
 10
680.4656833857
 20
-312.9424150356
 10
682.9744677956
 20
-319.454480364
 10
685.2733683908
 20
-325.9765443099
 10
687.3572554252
 20
-332.4940535984
 10
689.2214789318
 20
-338.9924651177
 10
690.8618790992
 20
-345.4572783708
 10
692.2747955531
 20
-351.8740678314
 10
693.4570755244
 20
-358.228515133
 10
694.4060808842
 20
-364.5064410191
 10
695.1196940305
 20
-370.6938369821
 10
695.5963226133
 20
-376.7768965223
 10
695.8349030879
 20
-382.7420459551
 10
695.8349030879
 20
-388.5759746998
 10
695.5963226133
 20
-394.26566498
 10
695.1196940305
 20
-399.798420872
 10
694.4060808842
 20
-405.161896634
 10
693.4570755244
 20
-410.3441242542
 10
692.2747955531
 20
-415.3335401565
 10
690.8618790992
 20
-420.1190110029
 10
689.2214789318
 20
-424.689858537
 10
687.3572554252
 20
-429.0358834104
 10
685.2733683908
 20
-433.1473879423
 10
682.9744677956
 20
-437.0151977584
 10
680.4656833857
 20
-440.6306822626
 10
677.7526132402
 20
-443.9857738952
 10
674.8413112792
 20
-447.0729861349
 10
671.7382737561
 20
-449.8854302039
 10
668.4504247607
 20
-452.41683044
 10
664.9851007698
 20
-454.6615382992
 10
664.5335704982
 20
-454.9253306379
  0
LWPOLYLINE
  5
10D
330
1F
100
AcDbEntity
  8
0
  6
Continuous
 62
     1
370
    25
100
AcDbPolyline
 90
       69
 70
   128
 43
0.0
 10
530.97365285
 20
-182.7403784414
 10
532.3190574298
 20
-181.9908471245
 10
536.0359764293
 20
-180.1853663608
 10
539.9103346377
 20
-178.6778764937
 10
543.9334868469
 20
-177.4717413226
 10
548.0964558312
 20
-176.5696522066
 10
552.389952379
 20
-175.9736220594
 10
556.8043960206
 20
-175.6849808572
 10
561.329936406
 20
-175.7043726714
 10
565.9564752852
 20
-176.0317542314
 10
570.6736890408
 20
-176.6663950208
 10
575.4710517243
 20
-177.6068789078
 10
580.3378585437
 20
-178.8511073053
 10
585.2632497501
 20
-180.396303853
 10
590.2362348696
 20
-182.2390206133
 10
595.2457172279
 20
-184.3751457646
 10
600.280518711
 20
-186.7999127764
 10
605.3294047082
 20
-189.5079110452
 10
610.3811091805
 20
-192.4930979682
 10
615.4243597999
 20
-195.748812426
 10
620.4479031023
 20
-199.2677896465
 10
625.4405295982
 20
-203.0421774157
 10
630.3910987857
 20
-207.0635535985
 10
635.2885640092
 20
-211.3229449322
 10
640.1219971086
 20
-215.8108470492
 10
644.8806128049
 20
-220.517245685
 10
649.5537927655
 20
-225.431639024
 10
654.1311092989
 20
-230.543061133
 10
658.6023486218
 20
-235.8401064306
 10
662.957533651
 20
-241.3109551374
 10
667.1869462658
 20
-246.9433996507
 10
671.2811489927
 20
-252.7248717845
 10
675.2310060647
 20
-258.6424708137
 10
679.027703806
 20
-264.682992261
 10
682.6627702995
 20
-270.832957361
 10
686.1280942903
 20
-277.0786431368
 10
689.4159432857
 20
-283.4061130213
 10
692.5189808089
 20
-289.8012479549
 10
695.4302827698
 20
-296.249777891
 10
698.1433529154
 20
-302.7373136378
 10
700.6521373253
 20
-309.2493789662
 10
702.9510379205
 20
-315.7714429121
 10
705.0349249548
 20
-322.2889522006
 10
706.8991484615
 20
-328.7873637199
 10
708.5395486288
 20
-335.252176973
 10
709.9524650827
 20
-341.6689664336
 10
711.1347450541
 20
-348.0234137352
 10
712.0837504139
 20
-354.3013396213
 10
712.7973635602
 20
-360.4887355843
 10
713.273992143
 20
-366.5717951245
 10
713.5125726176
 20
-372.5369445573
 10
713.5125726176
 20
-378.370873302
 10
713.273992143
 20
-384.0605635823
 10
712.7973635602
 20
-389.5933194743
 10
712.0837504139
 20
-394.9567952362
 10
711.1347450541
 20
-400.1390228564
 10
709.9524650827
 20
-405.1284387587
 10
708.5395486288
 20
-409.9139096052
 10
706.8991484615
 20
-414.4847571392
 10
705.0349249548
 20
-418.8307820126
 10
702.9510379205
 20
-422.9422865445
 10
700.6521373253
 20
-426.8100963606
 10
698.1433529154
 20
-430.4255808648
 10
695.4302827698
 20
-433.7806724974
 10
692.5189808089
 20
-436.8678847371
 10
689.4159432857
 20
-439.6803288061
 10
686.1280942903
 20
-442.2117290422
 10
682.6627702995
 20
-444.4564369014
 10
682.2113611612
 20
-444.7201593116
  0
ENDSEC
  0
SECTION
  2
OBJECTS
  0
DICTIONARY
  5
C
330
0
100
AcDbDictionary
281
     1
  3
ACAD_GROUP
350
D
  3
ACAD_LAYOUT
350
1A
  3
ACAD_MLINESTYLE
350
17
  3
ACAD_PLOTSETTINGS
350
19
  3
ACAD_PLOTSTYLENAME
350
E
  3
ACAD_SCALELIST
350
47
  3
DWGPROPS
350
10E
  0
DICTIONARY
  5
D
102
{ACAD_REACTORS
330
C
102
}
330
C
100
AcDbDictionary
281
     1
  0
DICTIONARY
  5
1A
102
{ACAD_REACTORS
330
C
102
}
330
C
100
AcDbDictionary
281
     1
  3
Layout1
350
1E
  3
Layout2
350
26
  3
Model
350
22
  0
DICTIONARY
  5
17
102
{ACAD_REACTORS
330
C
102
}
330
C
100
AcDbDictionary
281
     1
  3
Standard
350
18
  0
DICTIONARY
  5
19
102
{ACAD_REACTORS
330
C
102
}
330
C
100
AcDbDictionary
281
     1
  0
ACDBDICTIONARYWDFLT
  5
E
102
{ACAD_REACTORS
330
C
102
}
330
C
100
AcDbDictionary
281
     1
  3
Normal
350
F
100
AcDbDictionaryWithDefault
340
F
  0
DICTIONARY
  5
47
102
{ACAD_REACTORS
330
C
102
}
330
C
100
AcDbDictionary
281
     1
  3
A0
350
48
  3
A1
350
49
  3
A2
350
4A
  3
A3
350
4B
  3
A4
350
4C
  3
A5
350
4D
  3
A6
350
4E
  3
A7
350
4F
  3
A8
350
50
  3
A9
350
51
  3
B0
350
52
  3
B1
350
53
  3
B2
350
54
  3
B3
350
55
  3
B4
350
56
  3
B5
350
57
  3
B6
350
58
  3
B7
350
59
  3
B8
350
5A
  3
B9
350
5B
  3
C0
350
5C
  3
C1
350
5D
  3
C2
350
5E
  3
C3
350
5F
  3
C4
350
60
  3
C5
350
61
  3
C6
350
62
  3
C7
350
63
  3
C8
350
64
  3
C9
350
65
  3
D0
350
66
  3
D1
350
67
  3
D2
350
68
  0
XRECORD
  5
10E
102
{ACAD_REACTORS
330
C
102
}
330
C
100
AcDbXrecord
280
     1
  1
DWGPROPS COOKIE
  2

  3

  4

  6

  7

  8
b.kav
  9

300
=
301
=
302
=
303
=
304
=
305
=
306
=
307
=
308
=
309
=
 40
0.0
 41
2459935.585379097
 42
2459935.585379178
  1

 90
        0
  0
LAYOUT
  5
1E
102
{ACAD_REACTORS
330
1A
102
}
330
1A
100
AcDbPlotSettings
  1

  2
none_device
  4

  6

 40
0.0
 41
0.0
 42
0.0
 43
0.0
 44
0.0
 45
0.0
 46
0.0
 47
0.0
 48
0.0
 49
0.0
140
0.0
141
0.0
142
1.0
143
1.0
 70
   688
 72
     1
 73
     0
 74
     5
  7

 75
    16
147
1.0
148
0.0
149
0.0
100
AcDbLayout
  1
Layout1
 70
     1
 71
     1
 10
0.0
 20
0.0
 11
420.0
 21
297.0
 12
0.0
 22
0.0
 32
0.0
 14
1.0000000000E+20
 24
1.0000000000E+20
 34
1.0000000000E+20
 15
-1.0000000000E+20
 25
-1.0000000000E+20
 35
-1.0000000000E+20
146
0.0
 13
0.0
 23
0.0
 33
0.0
 16
1.0
 26
0.0
 36
0.0
 17
0.0
 27
1.0
 37
0.0
 76
     0
330
1B
  0
LAYOUT
  5
26
102
{ACAD_REACTORS
330
1A
102
}
330
1A
100
AcDbPlotSettings
  1

  2
none_device
  4

  6

 40
0.0
 41
0.0
 42
0.0
 43
0.0
 44
0.0
 45
0.0
 46
0.0
 47
0.0
 48
0.0
 49
0.0
140
0.0
141
0.0
142
1.0
143
1.0
 70
   688
 72
     1
 73
     0
 74
     5
  7

 75
    16
147
1.0
148
0.0
149
0.0
100
AcDbLayout
  1
Layout2
 70
     1
 71
     2
 10
0.0
 20
0.0
 11
0.0
 21
0.0
 12
0.0
 22
0.0
 32
0.0
 14
0.0
 24
0.0
 34
0.0
 15
0.0
 25
0.0
 35
0.0
146
0.0
 13
0.0
 23
0.0
 33
0.0
 16
1.0
 26
0.0
 36
0.0
 17
0.0
 27
1.0
 37
0.0
 76
     0
330
23
  0
LAYOUT
  5
22
102
{ACAD_REACTORS
330
1A
102
}
330
1A
100
AcDbPlotSettings
  1

  2
none_device
  4
Letter_(8.50_x_11.00_Inches)
  6

 40
6.35
 41
6.35
 42
6.35000508
 43
6.35000508
 44
215.9
 45
279.4
 46
0.0
 47
0.0
 48
0.0
 49
0.0
140
0.0
141
0.0
142
1.0
143
1.0
 70
  1712
 72
     1
 73
     0
 74
     0
  7

 75
     0
147
1.0
148
0.0
149
0.0
100
AcDbLayout
  1
Model
 70
     1
 71
     0
 10
0.0
 20
0.0
 11
279.4
 21
215.9
 12
0.0
 22
0.0
 32
0.0
 14
0.0
 24
0.0
 34
0.0
 15
279.4
 25
215.9
 35
0.0
146
0.0
 13
0.0
 23
0.0
 33
0.0
 16
1.0
 26
0.0
 36
0.0
 17
0.0
 27
1.0
 37
0.0
 76
     0
330
1F
331
29
  0
MLINESTYLE
  5
18
102
{ACAD_REACTORS
330
17
102
}
330
17
100
AcDbMlineStyle
  2
Standard
 70
     0
  3

 62
   256
 51
90.0
 52
90.0
 71
     2
 49
0.5
 62
   256
  6
BYLAYER
 49
-0.5
 62
   256
  6
BYLAYER
  0
ACDBPLACEHOLDER
  5
F
102
{ACAD_REACTORS
330
E
102
}
330
E
  0
SCALE
  5
48
102
{ACAD_REACTORS
330
47
102
}
330
47
100
AcDbScale
 70
     0
300
1:1
140
1.0
141
1.0
290
     1
  0
SCALE
  5
49
102
{ACAD_REACTORS
330
47
102
}
330
47
100
AcDbScale
 70
     0
300
1:2
140
1.0
141
2.0
290
     0
  0
SCALE
  5
4A
102
{ACAD_REACTORS
330
47
102
}
330
47
100
AcDbScale
 70
     0
300
1:4
140
1.0
141
4.0
290
     0
  0
SCALE
  5
4B
102
{ACAD_REACTORS
330
47
102
}
330
47
100
AcDbScale
 70
     0
300
1:5
140
1.0
141
5.0
290
     0
  0
SCALE
  5
4C
102
{ACAD_REACTORS
330
47
102
}
330
47
100
AcDbScale
 70
     0
300
1:8
140
1.0
141
8.0
290
     0
  0
SCALE
  5
4D
102
{ACAD_REACTORS
330
47
102
}
330
47
100
AcDbScale
 70
     0
300
1:10
140
1.0
141
10.0
290
     0
  0
SCALE
  5
4E
102
{ACAD_REACTORS
330
47
102
}
330
47
100
AcDbScale
 70
     0
300
1:16
140
1.0
141
16.0
290
     0
  0
SCALE
  5
4F
102
{ACAD_REACTORS
330
47
102
}
330
47
100
AcDbScale
 70
     0
300
1:20
140
1.0
141
20.0
290
     0
  0
SCALE
  5
50
102
{ACAD_REACTORS
330
47
102
}
330
47
100
AcDbScale
 70
     0
300
1:30
140
1.0
141
30.0
290
     0
  0
SCALE
  5
51
102
{ACAD_REACTORS
330
47
102
}
330
47
100
AcDbScale
 70
     0
300
1:40
140
1.0
141
40.0
290
     0
  0
SCALE
  5
52
102
{ACAD_REACTORS
330
47
102
}
330
47
100
AcDbScale
 70
     0
300
1:50
140
1.0
141
50.0
290
     0
  0
SCALE
  5
53
102
{ACAD_REACTORS
330
47
102
}
330
47
100
AcDbScale
 70
     0
300
1:100
140
1.0
141
100.0
290
     0
  0
SCALE
  5
54
102
{ACAD_REACTORS
330
47
102
}
330
47
100
AcDbScale
 70
     0
300
2:1
140
2.0
141
1.0
290
     0
  0
SCALE
  5
55
102
{ACAD_REACTORS
330
47
102
}
330
47
100
AcDbScale
 70
     0
300
4:1
140
4.0
141
1.0
290
     0
  0
SCALE
  5
56
102
{ACAD_REACTORS
330
47
102
}
330
47
100
AcDbScale
 70
     0
300
8:1
140
8.0
141
1.0
290
     0
  0
SCALE
  5
57
102
{ACAD_REACTORS
330
47
102
}
330
47
100
AcDbScale
 70
     0
300
10:1
140
10.0
141
1.0
290
     0
  0
SCALE
  5
58
102
{ACAD_REACTORS
330
47
102
}
330
47
100
AcDbScale
 70
     0
300
100:1
140
100.0
141
1.0
290
     0
  0
SCALE
  5
59
102
{ACAD_REACTORS
330
47
102
}
330
47
100
AcDbScale
 70
     0
300
1/128" = 1'-0"
140
0.0078125
141
12.0
290
     0
  0
SCALE
  5
5A
102
{ACAD_REACTORS
330
47
102
}
330
47
100
AcDbScale
 70
     0
300
1/64" = 1'-0"
140
0.015625
141
12.0
290
     0
  0
SCALE
  5
5B
102
{ACAD_REACTORS
330
47
102
}
330
47
100
AcDbScale
 70
     0
300
1/32" = 1'-0"
140
0.03125
141
12.0
290
     0
  0
SCALE
  5
5C
102
{ACAD_REACTORS
330
47
102
}
330
47
100
AcDbScale
 70
     0
300
1/16" = 1'-0"
140
0.0625
141
12.0
290
     0
  0
SCALE
  5
5D
102
{ACAD_REACTORS
330
47
102
}
330
47
100
AcDbScale
 70
     0
300
3/32" = 1'-0"
140
0.09375
141
12.0
290
     0
  0
SCALE
  5
5E
102
{ACAD_REACTORS
330
47
102
}
330
47
100
AcDbScale
 70
     0
300
1/8" = 1'-0"
140
0.125
141
12.0
290
     0
  0
SCALE
  5
5F
102
{ACAD_REACTORS
330
47
102
}
330
47
100
AcDbScale
 70
     0
300
3/16" = 1'-0"
140
0.1875
141
12.0
290
     0
  0
SCALE
  5
60
102
{ACAD_REACTORS
330
47
102
}
330
47
100
AcDbScale
 70
     0
300
1/4" = 1'-0"
140
0.25
141
12.0
290
     0
  0
SCALE
  5
61
102
{ACAD_REACTORS
330
47
102
}
330
47
100
AcDbScale
 70
     0
300
3/8" = 1'-0"
140
0.375
141
12.0
290
     0
  0
SCALE
  5
62
102
{ACAD_REACTORS
330
47
102
}
330
47
100
AcDbScale
 70
     0
300
1/2" = 1'-0"
140
0.5
141
12.0
290
     0
  0
SCALE
  5
63
102
{ACAD_REACTORS
330
47
102
}
330
47
100
AcDbScale
 70
     0
300
3/4" = 1'-0"
140
0.75
141
12.0
290
     0
  0
SCALE
  5
64
102
{ACAD_REACTORS
330
47
102
}
330
47
100
AcDbScale
 70
     0
300
1" = 1'-0"
140
1.0
141
12.0
290
     0
  0
SCALE
  5
65
102
{ACAD_REACTORS
330
47
102
}
330
47
100
AcDbScale
 70
     0
300
1-1/2" = 1'-0"
140
1.5
141
12.0
290
     0
  0
SCALE
  5
66
102
{ACAD_REACTORS
330
47
102
}
330
47
100
AcDbScale
 70
     0
300
3" = 1'-0"
140
3.0
141
12.0
290
     0
  0
SCALE
  5
67
102
{ACAD_REACTORS
330
47
102
}
330
47
100
AcDbScale
 70
     0
300
6" = 1'-0"
140
6.0
141
12.0
290
     0
  0
SCALE
  5
68
102
{ACAD_REACTORS
330
47
102
}
330
47
100
AcDbScale
 70
     0
300
1'-0" = 1'-0"
140
12.0
141
12.0
290
     0
  0
ENDSEC
  0
EOF
